Dispatch - General Chords & Tabs

 

General Chords & Tabs

Dispatch Chords & Tabs

Version: 6 Type: Tab 0 ratings
1 star 2 stars 3 stars 4 stars 5 stars
comments

General Tab

Dispatch
"The General"
Tabbed by Rob Stewart (topdawg039@aol.com)

Standard tuning.  Listen to the CD while trying to figure out this tab!!!!!!!!

Opening Riff.
                                   |??????????????????????|
E-------------------------------------------------------------------------|
B-------------------------------------------------------------------------|
G-----------------------33------------------------------------------------|
D-----------------------33-3---------3-3--5-3----3------------------------|
A---------------1-1-----11-3-------------------5---5-3--1-3---------------|
E----1---2---3------3------1----------------------------------------------|
                                   |I'm not sure about this
                                    little part here,|
[ Tab from: http://www.guitartabs.cc/tabs/d/dispatch/general_tab_ver_6.html ]
---3-3-----3--------------------------------------------------------------------------------|
---4-4-----3--------------------------------------------------------------------------------|
---5-5-----3--------------------8-8-X-X-----------------------------------------------------|
---5-5-----5--------------------8-8-X-X-8-8--3-3-3-X-3--------------------------------------|
---3-3-----5--------------------6-6-X-X-8-8--3-3-3-X-3--------------------------------------|
---3-3-----3-----1-1-2-2-3----------X-X-6-6--1-1-1-X-1--------------------------------------|

Repeat.

The rest of the song is the same chords, just with different strumming patterns.  Listen to the cd
to figure them out.  The only other part is this:

--------3-3-3-----------1-1-1---------------------------------------------|
--------3-3-3-----------1-1-1---------------------------------------------|
--------3-3-3-----------1-1-1---------------------------------------------|
X-3-4-5-5-5-5-----------3-3-3---------------------------------------------|
X-3-4-5-5-5-5-1-3-1-----3-3-3--Repeat.------------------------------------|
X-1-2-3-3-3-3-------3-1-1-1-1---------------------------------------------|


The notes on this tab are correct, but I know, its really confusing,
so I'll be making some changes soon.
Comments