Dispatch - General Chords & Tabs

 

General Chords & Tabs

Dispatch Chords & Tabs

Version: 4 Type: Tab 0 ratings
1 star 2 stars 3 stars 4 stars 5 stars
comments

General Tab

   
Tabbed: Steve L
Song: The General
band: Dispatch


The general is a great song and needs to be tabbed right.
play it acoustic or dont play it.  THis is right , no capo.

Intro:
          A#   F                     C    G            d#  A#
e|--------1-1--1---------------------3-3--3------------6---6-|
b|--------1-1--1---------------------3-3--3------------6---6-|
G|--------3-3--2---------------------5-5--4------------8---7-|
D|--------3-3--3--3-3h5p3------------5-5--5------------8---8-|
A|-----1--1-1--3---------5-3-3-1-1-3-3-3--5----1-3-3\6-6---8-|
E|-1\3---31-1--1---------------------3-3--3-1-3--------6-6-6-|

e|-1x1--1x1-|
b|-1x1--1x1-|
G|-2x2--2x2-|
D|-3x3--3x3-| X 2
A|-3x3--3x3-|
E|-1x1--1x1-|

Verse:
[ Tab from: http://www.guitartabs.cc/tabs/d/dispatch/general_tab_ver_4.html ]
            A#                          F
 There was a decorated general with a heart of gold
          C                       G
that likened him, to all the stories he told,
          d#                      A#
of past battles one and lost and legends of old
   F         F         F    F
a seasoned veteran in his own time.

follow this pattern for the whole song, listen for the ryhthm, the whole
uses only these chords.

except for one part after the chorus:

e|-1-1-2-3--3---------------1-1--1--|
b|-1-1-2-3--3---------------1-1--1--|
G|-2-2-3-4--4---------------2-2--2--|
D|-3-3-4-5--5---------------3-3--3--|
A|-3-3-4-5--5---1--3--------3-3--3--|
E|-1-1-2-3--3--------3-2-1--1-1--1--|

any questions or for the lyrics email imafatkid577@aol.com
Comments