Dispatch - General Chords & Tabs

 

General Chords & Tabs

Dispatch Chords & Tabs

Version: 2 Type: Tab 0 ratings
1 star 2 stars 3 stars 4 stars 5 stars
comments

General Tab

ok this song is played in the key of A  so all you have to do is put a capo on the 1sr fret

Here's the intro

e--------------0-------------------------22--2-----------2---x-xx--0-----------------|
B--------------2-------------------------33--2-----------3---x-xx--0-----------------|
G--------------2-------------------------44--2-----------4---7-xx--1-----------------|
D--------------2---2-2h4p2---2-----------44--4-----------4---7-77--2-----------------|
A--------0-0---0-----------4---4-2-0--2--22--4------0h2--2---5-77--2-----------------|
E--0-1-2-----3-0-------------------------xx--2--0h2------x---x-55--0-----------------|
[ Tab from: http://www.guitartabs.cc/tabs/d/dispatch/general_tab_ver_2.html ]
then the rest of the song is just           the one riff change goes like this

e--0---0---2---2---2---0---0----------    ---2-xx--0-------------------------------------------------|
B--2---0---3---2---3---2---0----------    ---2-xx--0-------------------------------------------------|
G--2---1---4---2---2---2---1----------    ---2-xx--1-------------------------------------------------|
D--2---2---4---4---0---2---2----------    ---4-xx--2-------------------------------------------------|
A--0---2---2---4---0---0---2----------    ---4-xx--2-------------------------------------------------|
E--0---0---x---2---x---0---0----------    ---2-xx--0-------------------------------------------------|
this is not the timing or the strumming pattern
it only shows the cord progression
Comments