Dispatch - Elias Chords & Tabs

 

Elias Chords & Tabs

Dispatch Chords & Tabs

Version: 1 Type: Tab 0 ratings
1 star 2 stars 3 stars 4 stars 5 stars
comments

Elias Tab

There are two ways to play Elias. Chad plays it one way while Pete plays the same chords but most of them 
barre chords(but played simulataneously because they are the same chords).


--------------------------------------------------------------------------------

Chad's Part
Intro(twice): A-->E-->D-->F#**-->E
**not sure of the name of this chord but this is what it is: 244XXX OR 244222


--------------------------------------------------------------------------------
"Kasiwa i..." & "Raise your..." & "Honest and Manuel..."
A-->E-->D-->F#**-->E


--------------------------------------------------------------------------------
"If you die will I get word that you're gone..." & "Hold my hand..." & ENDING (Outro) & "Like A Prayer"
A-->E-->F#-->E-->D

There may be a quick chord played in bewteen the E and D. I am trying to hear if there is. If there is it 
either an A or F#. It is so quick that it is not necessary.

[ Tab from: http://www.guitartabs.cc/tabs/d/dispatch/elias_tab.html ]
--------------------------------------------------------------------------------
Bridge-thingy and "I see your wife..."
D-->A-->D-->E

--------------------------------------------------------------------------------

Pete's Part
Same chords just played differently...tabbed by Burton

"Kasiwa i..." & "Raise your..." & "Honest and Manuel..."
e--5--7--5---9--7h12-|(w/ pinky)
B--5--9--7--10--9h12-|(w/ pinky)
G--6--9--7--11--9----|
D--7--9--7--11--9----|
A--7--7--5---9--7----|
E--5-----------------|


--------------------------------------------------------------------------------

"If you die will I get word that you're gone..." & "Hold my hand..." & ENDING (Outro) & "Like A Prayer"
e--5--7---9--7--5-|
B--5--9--10--9--7-|
G--6--9--11--9--7-|
D--7--9--11--9--7-|
A--7--7---9--7--5-|
E--5--------------|


--------------------------------------------------------------------------------
Bridge-thingy and "I see your wife..."
e--5--5--5--7-|
B--7--5--7--9-|
G--7--6--7--9-|
D--7--7--7--9-|
A--5--7--5--7-|
E-----5-------|
Comments