Dispatch - Bridges Chords & Tabs

 

Bridges Chords & Tabs

Dispatch Chords & Tabs

Version: 2 Type: Tab 0 ratings
1 star 2 stars 3 stars 4 stars 5 stars
comments

Bridges Tab

   
Song: Bridges
Artist: Dispatch
Tabbed By: Maximus Klein
Tuning: Standard, Capo on 3rd fret


Intro

	(Cadd9)			(C)		(Em)
e--0-------0--0-------0-----------------------------
B------3----------3--------1-------1----0-------0---
G--0-0---0------0---0----------0------------0-------
D-------------4--------------2---2---2----0---0---2-
A-----------------------5--3------------2-----------
E---------------------------------------------------
[ Tab from: http://www.guitartabs.cc/tabs/d/dispatch/bridges_tab_ver_2.html ]
	(Am)
e---------------0-----0-----------------0-----------
B--1-------1---------------1-------1----1-----------
G------2------------2----------2--------2-----------
D----2---2---2--2-2-----2----2---2---2--2-----------
A---------------------------------------------------
E---------------------------------------------------

Verse

   Cadd9	C	Cmaj7	  Am
e----0------0-------0------0--
B----3------1-------0------1--
G----0------0-------0------2--
D----4------2-------2------2--
A----5------3-------3------0--
E-----------------------------

Chorus:

    Em	C*	Am	G	D	C*	Dsus4
e---0-------3------0----3-----2-----3-------3-------
B---0-------1------1----3-----3-----1-------3-------
G---0-------0------2----0-----2-----0-------2-------
D---2-------2------2----0-----0-----2-------0-------
A---2-------3------0----2-----------3---------------
E---0-------------------3---------------------------

Ending: Cadd9, C, Em (let ring)
Comments