Dispatch - Bridges Chords & Tabs

 

Bridges Chords & Tabs

Dispatch Chords & Tabs

Version: 1 Type: Tab 0 ratings
1 star 2 stars 3 stars 4 stars 5 stars
comments

Bridges Tab

   
Song: Dispatch - Bridges
Note: Capo on 3rd fret
Comment: i have seen only one tab for this song floating around but
the beginning is horribly wrong. Just a reminder if you get a tab off
the internet, play it with the song because they arent always right.

Intro:

e---0---0-0---0-------------------0------------0--|
b-----3-----3---1---1-1---1-1-----------1------1--|
g-----------------0-----0-------2-----2-----2--2--|
d-----------------------------2-----2-----2----2--|
a-------------------------------------------------|
e-------------------------------------------------|
[ Tab from: http://www.guitartabs.cc/tabs/d/dispatch/bridges_tab.html ]
Verse:
  
  Cadd9   C          Am
e---0-----0-----0-----0---|
b---3-----1-----0-----1---|
g---0-----0-----0-----2---|
d---4-----2-----2-----2---|
a---5-----3-----3-----0---|
e-------------------------|

Chorus:
   
   Em     C    Am     G     D     C   Dsus4
e---0-----3-----0-----3-----2-----3-----3-----|
b---0-----1-----1-----3-----3-----1-----2-----|
g---0-----0-----2-----0-----2-----0-----3-----|
d---2-----2-----2-----0-----0-----2-----0-----|
a---2-----3-----------2-----------3-----------|
e---0-----------------3-----------------------|

Ending:  (let last chord ring)

  Cadd9   C    Em
e---0-----0-----0----|
b---3-----1-----0----|
g---0-----0-----0----|
d---4-----2-----2----|
a---5-----3-----2----|
e---------------0----|

By: chris22
Comments