Dispatch - Bang Bang Chords & Tabs

 

Bang Bang Chords & Tabs

Dispatch Chords & Tabs

Version: 5 Type: Tab 0 ratings
1 star 2 stars 3 stars 4 stars 5 stars
comments

Bang Bang Tab

   
-------------------------------------------------------------------------------
			     Bang Bang (solo) - Dispatch
-------------------------------------------------------------------------------
Tabbed by: Pat Wiener
e-mail:wienee42@aol.com

 This is an awesome song, and I was lucky enough to see them play for The Last
Dispatch in Boston.  Sorry I don't have the whole song yet, I'm still trying to
figure it out, cuz it's still not sounding right.  The solo is easy, just liste
 to the song for the timing.  I've seen a couple other tabs for this solo that
seemed to have too much extra stuff in them, so I put this together, and it plays
exactly with the song.  Any questions just e-mail me.

Tuning: EADGBe
[ Tab from: http://www.guitartabs.cc/tabs/d/dispatch/bang_bang_tab_ver_5.html ]
e|-------------------------------------------
B|-------------------------------------------
G|-11--9-----9--6-----9--6------9--6---------
D|----------------9--------9---------9--6----
A|-------------------------------------------
E|-------------------------------------------

e|------------------------------------------|
B|------------------------------------------|
G|----------------9-11-9--------------------|
D|-------9-9-9h11----------------9-11---(11)|
A|-9/11-------------------7-9/11------------|
E|------------------------------------------|

e|-------------------------|
B|-------------------------|
G|-----r11---9-------------|
D|--------------r11---9----|   x4
A|-------------------------|
E|-------------------------|



| /  slide up
| h  hammer-on
| r  release bend
===============================================================================
Comments