Dispatch - Bang Bang Chords & Tabs

 

Bang Bang Chords & Tabs

Dispatch Chords & Tabs

Version: 2 Type: Tab 0 ratings
1 star 2 stars 3 stars 4 stars 5 stars
comments

Bang Bang Tab

“Bang Bang”
Dispatch
Tabbed by Mike «VsG»
mLynch20@mac.com

Verse
e---------------------------------------
b----9--9-------------------------------
g----9--9--9/11-9-----------------------
d----9--9--9/11-9—-9/11-9---------------
a----7--7----------9/11-9---------7-7h9-
E---------------------------7--9--------



Bridge
e-4--4----x--5----7--- 		e--5-5---4-4----7-7---7--
B-5--5----x--5----7--- 		B--5-5---5-5----9-9---7--
G-4--4----x--6----8--- 		G--6-6---4-4----9-9---8--
D-6--6----x--7----9--- 		D--7-7---6-6----9-9---9--
A-4--4----x--7----9--- 		A--7-7---4-4----7-7---9--
E------------5----7---   x 3	E--5-5----------------7--
[ Tab from: http://www.guitartabs.cc/tabs/d/dispatch/bang_bang_tab_ver_2.html ]
Solo
e---------------------------------------------------------- 
B---------------------------------------------------------- 
G-9h11---9----6h9--6------6h9--6-------6h9--6-------------- 
D---------------------9-----------9------------9---6------- 
A---------------------------------------------------------- 
E---------------------------------------------------------- 


e---------------------------------------------------------- 
B---------------------------------------------------------- 
G-----------------------------9-9h11--9-------------------- 
D---------------9-9-9-9-9h11----------------------9--11-/11 
A--9--7---9/11----------------------------7-9/11----------- 
E---------------------------------------------------------- 

e------------------------------------ 
B------------------------------------ 
G---------------r11---9-------------- 
D-------------------------r11---9---- 
A------------------------------------ 
E------------------------------------
Comments