Dispatch - Bang Bang Chords & Tabs

 

Bang Bang Chords & Tabs

Dispatch Chords & Tabs

Version: 1 Type: Tab 1 rating
1 star 2 stars 3 stars 4 stars 5 stars
comments

Bang Bang Tab

   
Thanks once again to Lance (Hayden Tobin) for this tab. Lance, you da man!! Peace, Burton 


“Bang Bang” 
by: Dispatch 
tabbed by: lance 


h-Hammer on 
p-pull off 
/-slide up 
\-slide down 
bh-bend half step 
bw-bend whole step 
pb-pre bend 
r-release bend 



Intro/verse 


e-7---7--x-x---------------------------------------------|| 
B-9---9--x-x---------9-----------------------------------|| 
G-9---9--x-x---9-----9----------9-----9-----------------.|| 
D-9---9--x-x---9h11------9------9-----9-----------------.|| 
A-7---7--x-x-------------9h11---9--9--9--------7—7h9-----|| 
E-----------------------------------------7--9-----------|| 


--------------------------------------------------------------------------------
“Hey Mr. Man” 
(Dbm) not sure 
Dbm7 A B 
D D D U U 
e-4--4----x--5----7---------------------------------------- 
B-5--5----x--5----7---------------------------------------- 
G-4--4----x--6----8---------------------------------------- 
D-6--6----x--7----9---------------------------------------- 
A-4--4----x--7----9---------------------------------------- 
E------------5----7---------------------------------------- 

“be sleepin be sleepin” 

[ Tab from: http://www.guitartabs.cc/tabs/d/dispatch/bang_bang_tab.html ]
A Dbm7 E B 
e--5----4-----7----7--------------------------------------- 
B--5----5-----9----7--------------------------------------- 
G--6----4-----9----8--------------------------------------- 
D--7----6-----9----9--------------------------------------- 
A--7----4-----7----9--------------------------------------- 
E--5---------------7--------------------------------------- 


--------------------------------------------------------------------------------
Guitar Solo in Pentatonic Emaj. 

e---------------------------------------------------------- 
B---------------------------------------------------------- 
G-9h11---9----6h9--6------6h9--6-------6h9--6-------------- 
D---------------------9-----------9------------9---6------- 
A---------------------------------------------------------- 
E---------------------------------------------------------- 


e---------------------------------------------------------- 
B---------------------------------------------------------- 
G-----------------------------9-9h11--9-------------------- 
D---------------9-9-9-9-9h11----------------------9--11-/11 
A--9--7---9/11----------------------------7-9/11----------- 
E---------------------------------------------------------- 

Prebend ½ step (11bh12) before release 
e---------------------------------------------------------- 
B---------------------------------------------------------- 
G---------------r11---9------------------------------------ 
D-------------------------r11---9-------------------------- 
A---------------------------------------------------------- 
E---------------------------------------------------------- 
Comments