Disincarnate - Stench Of Paradise Burning Chords & Tabs

 

Stench Of Paradise Burning Chords & Tabs

Disincarnate Chords & Tabs

Version: 1 Type: Tab 0 ratings
1 star 2 stars 3 stars 4 stars 5 stars
comments

Stench Of Paradise Burning Tab

   
join the death/black metal tab mailing list by emailing 
        

                            Stench Of Paradise Burning-Disincarnate
                                      Roadrunner Records 1993  
                                      The All Blacks B.V.
                                                      
                                                          Tabbed by:Jay
Siebert
                                                          sieberte@iaw.com
 Riff A       (Repeat this twice)
 ----------------------------------------------------------
 ----------------------------------------------------------
 ----------------------------------------------------------
 -------888777666777---------------888777666777------------
 -555444-------------8-7-6-7-555444-------------8-7-6-7----
 --------------------6-5-4-5--------------------6-5-4-5----
                     * * * *                    * * * *
[ Tab from: http://www.guitartabs.cc/tabs/d/disincarnate/stench_of_paradise_burning_tab.html ]
 Repeat this also twice
 ----------------------------------------------------------
 ----------------------------------------------------------
 ----------------------------------------------------------
 -------(888777666777)--------------(888777666777)---------
 (555444)-------------8-7-6-7(555444)------------8-7-6-7---
 ---------------------6-5-4-5--------------------6-5-4-5---
                      * * * *                    * * * *
 This time guitar to plays the fifth to the notes in Brackets.
 ------------------------------------------------------------ Riff B
 ------------------------------------------------------------ Repeat this 
 ------------------------------------------------------------ this twice!
 ------------------------------------------------------------
 -12---1011-11/12---1011--9/10--8-9---9/10--8-9-1112---1011--
 -10-0-8-9-0-9/10-0-8-9-0-7/8-0-6-7-0-7/8-0-6-7-9-10-0-8-9---
     **    *      * *   *     * *   *     * *   *    * *
 ------------------------------------------------------------
 ------------------------------------------------------------
 ------------------------------------------------------------
 ------------------------------------------------------------
 --11/12---8-9---9/10--8-9---10-9-810-9-8--------------------
 -0-9/10-0-6-7-0-7/8-0-6-7-00-8-7-6-8-7-6--------------------
  *      * *   *     * *   ** * * * * * *
                                             Riff C
 -------------------------------------------------------------
 ------------------------------------------------------------- Play this lick
 ------------------------------------------------------------- 4 times and
play 
 ------------77776666-----------6666655555-----------55554444- the fifths to
 -55555588888---------4444455555-----------3333334444--------- notes on the 
 ------------------------------------------------------------- third and forth
                                                               times. 
 -------------------------------------------------------------
 -------------------------------------------------------------
 -------------------------------------------------------------
 -------------------------------------------------------------
 -----------55554444------------------------------------------
 -3333336666--------------------------------------------------
                                                    Riff D
 ------------------------------------------------------------- Repeat this
 ------------------------------------------------------------- three times.
 --------------------------------------6/7-6----5\4-----------
 --------------------------------------4/5-4----3\2-----------
 --------------------------------------4/5-4----3\2-----------
 -000777333666000777333666000777333666-------000--------------
  ************************************       ***
                                                  Riff E
 ------------------------------------------------------------- Play this 4
 ------------------------------------------------------------- times play the
 ------------------------------------------------------------- fifths to
 ---------P------------------------P-------------------------- the notes in
 ---------~-------------~----------~-------------------------- brackets.On the
 -0000000-3-00-0000-6-7-6-00000000-3-00(3333333366666666)----- second and
four-
  *******   ** ****       ********   ** ****************       th times.
                                               Riff F            Play 6 times.
 ------------------------------------------------------------- All the notes
 ------------------------------------------------------------- with P above it
 ---------------------(9-8--8-7)------------P----------------- just means a
 -------------~-/7-6(7-----6---)-------P----~---P-----7-----6- pinch harmonic.
 --------~-/8-7------------------------~-/8-7---~-----5-----4- But to get the
 -0-/5-6-5----------------------0-/5-6-5------9-6-0-0-5-0-0-4- same sound as 
                                                  * *   * *    the tape.Do a
                                                               very wide 
                                                               vibrato.
 Repeat riff C four times.Then end it like this.
 ----------------------------- Let the B chord ring out a little.
 -----------------------------
 -----------------------------
 -4--3-6-5--------------------
 -2--1-4-3--------------------
 -2--1-4-3--------------------

 Repeat riff E four times.Then the solo starts.Here's riff behind solo.
          Repeat twice.
 ------------------------------------------------ I didn't tab the power chords
 ------------------------------------------------ properly as far as the proper
 ------------------------------------------------ rythmn goes.Just listen to 
 -5-6-5-3-4-8-6-5-6-5---------------------------- tape and you'll hear it.
 -5-6-5-3-6-8-6-5-6-5----------------------------
 -3-4-3-1-4-6-4-3-4-3----------------------------

 ------------------------------------------------ Repeat this twice
 ------------------------------------------------
 ------------------------------------------------
 ------------------------------------------------
 ------------------------------------------------
 -3333333333333311114444444466664444333344443333-
                                
                                Repeat 3 times after solo.
 ------------------------------------------------------------------------
 ------------------------------------------------------------------------
 -----------------------------------------------------5/6-5----4-3-------
 -----------------------------------------------------3/4-3----2-1-------
 -----------------------------------------------------3/4-3----2-1-------
 -0000777733336666-0000777733336666-0000777733336666--------000----------
       
       play once
 ---------------------------------------------------------------
 ---------------------------------------------------------------
 ------------------~---9-8--8-7---------------------------------
 -------------~-/7-6-7----6------------P----~---------7-----6---
 --------~-/8-7------------------------~-/8-7---~-----5-----4---
 -0-/5-6-5----------------------0-/5-6-5------9-6-0-0-5-0-0-4---

 --------------------------------------------------------------------------
 --------------------------------------------------------------------------
 ------------------~---9-8---8-7-------------------------------------------
 -------------~-/7-6-7-----6-----------P----~---------7-----6-----5-----4--
 --------~-/8-7------------------------~-/8-7---~-----5-----4-----3-----2-2
 -0-/5-6-5----------------------0-/5-6-5------9-6-0-0-5-0-0-4-0-0-3-0-0-2-0
                                                  * *   * *   * *   * * 
 --------------------------------------------------------------------------
 --------------------------------------------------------------------------
 --------------------5-4-------------------------------5-4------------P---
 --------------------3-2------4---3--------------------3-2------4-----~---
 -2--------3---------3-2----5-2-4-1----------3---------3-2----5-2-4-1-3---
 -00000000-1-00000000----00-3---2---00000000-1-00000000----00-3---2--------
  ********   ********    **         ********   ********    **       *

 --------------------------------------------------------------------------
 --------------------------------------------------------------------------
 ---------------------5-4----------------------(777766666)-----------------
 ---------------------3-2------4---3-(444455555)---------------------------
 ----------3----------3-2----5-2-4-1---------------------------------------
 -00000000-1-000000000----00-3---2-----------------------------------------
 *********   *********    **     Play the fifths to notes in brackets.

 --------------------------------------------------------------------------
 --------------------------------------------------------------------------
 --------------------5-4-------------------------------5-4-----------------
 --------------------3-2------4---3--------------------3-2------4---3------
 ----------3---------3-2----5-2-4-1----------3---------3-2----5-2-4-1------
 -00000000-1-00000000----00-3---2---00000000-1-00000000----00-3---2--------
  ********   ********    **         ********   ********    **

 -----------------------------------------------------------------------------
 -----------------------------------------------------------------------------
 --------------------5-4---------------------(7777766666)---------------------
 --------------------3-2------4---3(4444455555---------(7777766666)-----------
 ----------3---------3-2----5-2-4-1------------------------------(5555544444)2
 -00000000-1-00000000----00-3---2--------------------------------------------0
  ********   ********    **          Play fifths to notes in brackets.
Comments