Disidente - Gris Chords & Tabs

 

Gris Chords & Tabs

Disidente Chords & Tabs

Version: 2 Type: Tab 0 ratings
1 star 2 stars 3 stars 4 stars 5 stars
comments

Gris Tab

HOLA, ETA TAB SE LA DEDIKO A LOS MALINCHISTAS KE DEBERIAN DE DAR UN POKO MAS DE APOLLO A
LAS BANDAS LOKALES KOMO ESTA, KE ES UNA DE LAS MAS GRANDES PROMESAS DE GUANATOS

   INTRO Y KOROS
e|-11--11---|-9--9---|-11--11---|--6-6-|-11--11---|--6-6-|
B|---13--13-|--11-11-|---13--13-|-8-8--|---13--13-|-8-8--|
G|----------|--------|----------|------|----------|------|
D|----------|--------|----------|------|----------|------|
A|----------|--------|----------|------|----------|------|
E|----------|--------|----------|------|----------|------|
[ Tab from: http://www.guitartabs.cc/tabs/d/disidente/gris_tab_ver_2.html ]
ESTE ES EL FINAL DEL INTRO ESTE SE REPITE
(SE OYE MEJOR KON EL ECO)    X 2
e|-5-5-5-8-8-8-7--5-3-0-|-1-X-1-X-9-9-9-9-9-7-7-5-5-|-3/-|
B|----------------------|-1-X-1-X-9-9-9-9-9-7-7-5-5-|----|
G|----------------------|-1-X-1-X-9-9-9-9-9-7-7-5-5-|----|
D|----------------------|---------------------------|----|
A|----------------------|---------------------------|----|
E|----------------------|---------------------------|----|

ESTO ES EN EL RESTO DE LA KANCION
                      ESTO ES EL FINAL
e|---0---0---0---0--|----------------|
B|--0-0-0-0-0-0-0-0-|----------------|
G|------------------|-3-3-3-3-(XXXX)-|
D|-4---2---0---2----|----------------|
A|------------------|----------------|
E|------------------|----------------|

ESPERO LES GUSTE, LA OTRA GUITARRA VA EN AKORDE, NO LO SAKE POR KE YO SOLO TOKO LA
PRINCIPAL, Y TAMBIEN FELICITO A TODOS LOS ROCKER TAPATIOS KE HAN DECIDIDO HACER ALGO KON
ESTA BELLA PROFECION.

   VIVA EL ROCK!!!

DUDAS O AKLARACIONES CESAR_BULE@HOTMAIL.COM
Comments