Disidente - Gris Chords & Tabs

 

Gris Chords & Tabs

Disidente Chords & Tabs

Version: 1 Type: Tab 0 ratings
1 star 2 stars 3 stars 4 stars 5 stars
comments

Gris Tab

-------------------------------------------------------------------------------
			     GRIS - Disidente
-------------------------------------------------------------------------------
Tabbed by: pm
Email:

Aqui van rapido los acordes de la intro. de oido pueden sacar exactamente
el ritmo.

Tuning: bemol

Chords INTRO
[ Tab from: http://www.guitartabs.cc/tabs/d/disidente/gris_tab.html ]
e|---------------------------------------------------------------------------------------|
B|------5-------4-----2-------------2-------------------1--------------------------------|
G|------6-------6-----2------1------2-----1-----2-------2--------------------------------|
D|------6-------6-----2------2------2-----2-----4-------2--------------------------------|
A|------4-------4-----0------2------0-----2-----4-------0--------------------------------|
E|---------------------------0------------0-----2----------------------------------------|

                       SABES......          ESCUCHAR...
e|-----------------------------------------------------------------------------------|
B|-------5-----------------------------2---------------------------------------------|
G|-------6-----------------1-----------2---------------1-----------------------------|
D|-------6-----------------2-----------2---------------2-----------------------------|
A|-------4-----------------2-----------0---------------2-----------------------------|
E|-------------------------0---------------------------0-----------------------------|
Comments