Disidente - Escala De Violencia Chords & Tabs

 

Escala De Violencia Chords & Tabs

Disidente Chords & Tabs

Version: 1 Type: Tab 0 ratings
1 star 2 stars 3 stars 4 stars 5 stars
comments

Escala De Violencia Tab

-------------------------------------------------------------------------------
			     ESCALA DE VIOLENCIA - Disidente
-------------------------------------------------------------------------------


Tabbed by: PM
Email:

Este es un aproximado de las pisadas, lo demas no se como ponerlo bien
porque me falta tiempo para los detalles, pero las pisadas si son.
Tuning: bemol 6ta en Drop D

INTRO
e|-----------------------------------------------------------------------------|
B|-----------------------------------------------------------------------------|
G|-----------------------------------------------------------------------------|
D|-----------------------------------------------------------------------------|
A|-----------------------------------------------------------------------------|
E|-----0---7---7---0---6---7---0---7-------------------------------------------|

e|------------------------------------------------------------------------------|
B|------------------------------------------------------------------------------|
G|---------------------------------------------------------0--------------------|
D|--------------5----7----------------------------------- 0---------------------|
A|----5---7-------------- 0-----7--7---0----5---7---------7---------------------|
E|-------------------------0-----7--7---0----5---7---------7--------------------|

VERSO (Guitarra 1)
e|--------------------------------------------------------------------------------|
B|--------------------------------------------------------------------------------|
G|--------------------------------------------------------------------------------|
D|----9----9-------------------------------------------7--------------------------|
A|----7----7-------------------------------------------5--------------------------|
E|----7----7-------------------------------------------5--------------------------|
[ Tab from: http://www.guitartabs.cc/tabs/d/disidente/escala_de_violencia_tab.html ]
CORO GUITARRA 01// Despe................
e|------------------------------------------------------------------------------|
B|------------------------------------------------------------------------------|
G|------------------------------------------------------------------------------|
D|----11-----------------------------------------5---5----7---7---7-------------|
A|----9-----------------------------0--0---0----0---0----0---0---0--------------|
E|----9-------------------------------------------------------------------------|

CORO GUITARRA 02
e|-------------------------------------------------------------------------------------|
B|-------------------------------------------------------------------------------------|
G|-------------------------------------------------------------------------------------|
D|----5----5----5---5-----4---4---4---4------------------------------------------------|
A|----5----5----5---5-----5---5---5---5------------------------------------------------|
E|----3----3----3---3-----3---3---3---3------------------------------------------------|

e|-------------------------------------------------------------------------------------|
B|-------------------------------------------------------------------------------------|
G|-------------------------------------------------------------------------------------|
D|----5----5----5---5-----4---4---4---4------------------------------------------------|
A|----5----5----5---5-----5---5---5---5------------------------------------------------|
E|----3----3----3---3-----3---3---3---3------------------------------------------------|


e|--------------------------------|
B|--------------------------------|
G|----5-///--4--///---------------|
D|----2-///--2------5-////---2----|
A|---------------///--0-////---0--|
E|--------------------------------|


Solo guitarra y bateria
e|--------------------------------------------------------------------------------------|
B|--------------------------------------------------------------------------------------|
G|--------------------------------------------------------------------------------------|
D|--------------------------------------------------------------------------------------|
A|--------------------------------------------------------------------------------------|
E|-----0----7---7---0---5---7--0---7----0----7----7------0----5-----7-------------------|
Comments