Dishwalla - Life For Sale Chords & Tabs

 

Life For Sale Chords & Tabs

Dishwalla Chords & Tabs

Version: 1 Type: Tab

Life For Sale Tab

----------------------------------------------------------------------------
			     LIFE FOR SALE - Dishwalla
----------------------------------------------------------------------------
Tabbed by: Rob Linares
Email:rob_l68@yahoo.com

Tuning: Standard 4/40

e|---------------------------------------------------------------------------|
B|---1----1----1----0-----1----1----1----0-----------------------------------|
G|---2----2----2----0-----2----2----2----0-----------------------------------|
D|---2----2----2----0-----2----2----2----0-----------------------------------|
A|---------------------------------------------------------------------------|
E|--------------------------------------------------------------------------

e|---------------------------------------------------------------------------|
B|---1----1----1----0----1----1----1----0------------------------------------|
G|---2----2----2----0----2----2----2----0------------------------------------|
D|---2----2----2----0----2----2----2----0------------------------------------|
A|---------------------------------------------------------------------------|
E|--------------------------------------------------------------------------
[ Tab from: http://www.guitartabs.cc/tabs/d/dishwalla/life_for_sale_tab.html ]
e|-----------------------1-1-1-1-1-1-1-1---(0)(0)(0)(0)---3-3-3-3------------|
B|---5-5-5-5-5-5-5-5-----1-1-1-1-1-1-1-1---(0)(0)(0)(0)---3-3-3-3------------|
G|---5-5-5-5-5-5-5-5-----2-2-2-2-2-2-2-2---(0)(0)(0)(0)---4-4-4-4------------|
D|---5-5-5-5-5-5-5-5-----3-3-3-3-3-3-3-3----2--2--2--2----5-5-5-5------------|
A|---3-3-3-3-3-3-3-3-----3-3-3-3-3-3-3-3----2--2--2--2----5-5-5-5------------|
E|-----------------------1-1-1-1-1-1-1-1----0--0--0--0----3-3-3-3-----------

e|---------------------------------------------------------------------------|
B|---1----1----1----0-----1----1----1----0-----------------------------------|
G|---2----2----2----0-----2----2----2----0-----------------------------------|
D|---2----2----2----0-----2----2----2----0-----------------------------------|
A|---------------------------------------------------------------------------|
E|--------------------------------------------------------------------------

e|---------------------------------------------------------------------------|
B|---1----1----1----0-----1----1----1----0-----------------------------------|
G|---2----2----2----0-----2----2----2----0-----------------------------------|
D|---2----2----2----0-----2----2----2----0-----------------------------------|
A|---------------------------------------------------------------------------|
E|---------------------------------------------------------------------------|