Dishwalla - Give Chords & Tabs

 

Give Chords & Tabs

Dishwalla Chords & Tabs

Version: 1 Type: Tab 0 ratings
1 star 2 stars 3 stars 4 stars 5 stars
comments

Give Tab

Song:Give   
Artist:Dishwalla 
Album:Pet Your Friends  
Tabber:Me 
For the chorus, i dont have the exact strumming...listen to the song for it.

Intro/Verse:Clean
E|--3~--------------------------------|
B|--3~------------------4-------------|
G|--0~-------7--------6---6~-----3-5~-|
D|--0~-----6---6~---6----------5------|
A|--x~--/5--------4----------3--------|--|
E|--3~--------------------------------|  |
                                         |-x2
E|--3~--------------------------------|  |
B|--3~-------6----------4-------------|--| 
G|--0~---------7~-----6---6~-----3-5~-|
D|--0~-----6--------6----------5------|
A|--x~--/5--------4----------3--------|
E|--3~--------------------------------|

Chorus:Clean                Dist.
E|-------------------------------------------|
B|----1~--------1~------1~-------------------|
G|--1---------1-------1-----5-5555-----------|
D|3-------3-2-------1-------5-5555-----------|
A|--------------------------3-3333-----------|
E|-------------------------------------------|

E|-------1--------------1-------------1----------------|
B|----1----1---------1----1--------1----1--------------|
G|--1--------1-----1--------1----1--------1--5-5-66-5--|
D|3------------3-2-------------1-------------5-5-66-5--|
A|-------------------------------------------3-3-44-3--|
E|-----------------------------------------------------|

Verse:Clean
E|--3~--------------------------------|  
B|--3~-------6----------4-------------| 
G|--0~---------7~-----6---6~-----3-5~-|
D|--0~-----6--------6----------5------|
A|--x~--/5--------4----------3--------|
E|--3~--------------------------------|

E|--3~--------------------------------|
B|--3~------------------4-------------|
G|--0~-------7--------6---6~-----3-5~-|
D|--0~-----6---6~---6----------5------|
A|--x~--/5--------4----------3--------|
E|--3~--------------------------------|  
                                         
E|--3~--------------------------------|  
B|--3~-------6----------4-------------| 
G|--0~---------7~-----6---6~-----3-5~-|
D|--0~-----6--------6----------5------|
A|--x~--/5--------4----------3--------|
E|--3~--------------------------------|

Chorus:Clean                Dist.
E|-------------------------------------------|
B|----1~--------1~------1~-------------------|
G|--1---------1-------1-----5-5555-----------|
D|3-------3-2-------1-------5-5555-----------|
A|--------------------------3-3333-----------|
E|-------------------------------------------|
[ Tab from: http://www.guitartabs.cc/tabs/d/dishwalla/give_tab.html ]
E|-------1--------------1-------------1---------------------------|
B|----1----1---------1----1--------1----1-------------------------|
G|--1--------1-----1--------1----1--------1--5-5-66-55-66-5-------|
D|3------------3-2-------------1-------------5-5-66-55-66-5-------|
A|-------------------------------------------3-3-44-33-44-3-------|
E|----------------------------------------------------------------|

Solo:Effect makes it sound like a church organ

E|------------------------------------------------|
B|------------------------------------------------|
G|---------------8-10--10--12-10-12b13r12-10-9-9--|
D|----------8-10----------------------------------|
A|-----8-10---------------------------------------|
E|8-11--------------------------------------------|

E|------------------------------------------------------------------|
B|----------------------------9-11-12-11-9-11-----------------------|
G|-12-10-12b13r12-10-8--8-/10------------------7--7--12-1212-1111---|
D|---------------------------------------------------13-1313-1212---|
A|------------------------------------------------------------------|
E|------------------------------------------------------------------|

E|------------------------------------------------------|
B|----------9-11-12-11-9-11----------9-11-12-11-9-11----|
G|10-10-/10-----------------9-9--/10-----------------8-8|
D|------------------------------------------------------|
A|------------------------------------------------------|
E|------------------------------------------------------|

E|--------------------13--13----------------------------------|
B|----9-11-12-11-9-11---------13--13p11----11-----------------|
G|/10-----------------------------------13----13-12-13b15r13--|
D|------------------------------------------------------------|
A|------------------------------------------------------------|
E|------------------------------------------------------------|

E|---------------------|
B|---------------------|
G|-13-13-12-12-10--10--|
D|-11-11-10-10-8---8---|x8 im not sure about this part but it sounds good 
A|---------------------|
E|---------------------|

Chorus:
E|-------------------------------------------|
B|----1~--------1~------1~-------------------|
G|--1---------1-------1-----5-5555-----------|
D|3-------3-2-------1-------5-5555-----------|
A|--------------------------3-3333-----------|
E|-------------------------------------------|

E|-------1--------------1-------------1----------------|
B|----1----1---------1----1--------1----1--------------|
G|--1--------1-----1--------1----1--------1--5-5-66-5--|
D|3------------3-2-------------1-------------5-5-66-5--|
A|-------------------------------------------3-3-44-3--|
E|-----------------------------------------------------|

E|---------------------------------------------|
B|---------------------------------------------|
G|-55-66-55-66-55-66--5------------------------|
D|-55-66-55-66-55-66--5------------------------|
A|-33-44-33-44-33-44--3------------------------|
E|---------------------------------------------|

i didnt feel like doin the outro type thing
Comments