Dishwalla - Find Your Way Back Home Chords & Tabs

 

Find Your Way Back Home Chords & Tabs

Dishwalla Chords & Tabs

Version: 1 Type: Tab 0 ratings
1 star 2 stars 3 stars 4 stars 5 stars
comments

Find Your Way Back Home Tab

   
Date: March 09, 2002
Guitar Transciption of
Find Your Way Back Home
from the album American Pie I OST
Transcribed by: Reynaldo Co
For Questions/Comments: Reynaldo_8@edsamail.com.ph

Notes: Standard E Tuning. I think it is on the key of D.
       The same four chords is played throughout the song.
       Listen to the song to understand the tab very well.
       Ok!

Intro:
  D        Em       G        A
  There used...
e----0--------0-----3--3--------0-----|-|
B-3-----3--0-----0--3-----3--0-----0--|0|
G-2--------0--------0--------2--------|-| Drums enter as you repeat
D-0--------2--------0--------2--------|-|
A-0--------2--------2--------0--------|0|
E-------------------3-----------------|-|

Verse:

D5  E5  G5  A5

(All chords except E5 has extra note as you played, Play A5 palm mute
 Simultaneous with drums as verse ends. check the song to hear what I
 mean.)

Chorus:
[ Tab from: http://www.guitartabs.cc/tabs/d/dishwalla/find_your_way_back_home_tab.html ]
D5 E5 G5 A5

(Just play it through)

Solo:

play this very fast

e------------------------------------------------------------------|
B--3-3-3-2-2-2-3-3-3-5-5-5-3-3-2-2-3-3-3-2-2-2-3-3-3-5-5-5-3-3-3---|
G------------------------------------------------------------------|
D------------------------------------------------------------------|
A------------------------------------------------------------------|
E------------------------------------------------------------------|
                                                             play D5
e------------------------------------------------------------------|
B--5-5-5-7-7-7-8-8-8-7-7-7-5-5-5-3-3-3-2-2-2-3-3-3-5-5-5-3-2-------|
G------------------------------------------------------------7-----|
D------------------------------------------------------------7-----|
A------------------------------------------------------------5-----|
E------------------------------------------------------------------|
Comments