Dishwalla - Candleburn Chords & Tabs

 

Candleburn Chords & Tabs

Dishwalla Chords & Tabs

Version: 2 Type: Tab 0 ratings
1 star 2 stars 3 stars 4 stars 5 stars
comments

Candleburn Tab

   
DISHWALLA - Candleburn

Standard tuning! Listen to the song to get the right timing!

This isn't a guitarsong, it's actually played with a piano but
I have tabbed it for guitar and it's not 100% correct but,
this is what I've come up with:
[ Tab from: http://www.guitartabs.cc/tabs/d/dishwalla/candleburn_tab_ver_2.html ]
 Intro/Verse
   |---------------------------------------------------------|
   |-------------------2-------------------------------------|
||:|------10-11-----------------------------10---------| :---|
   |---8-----------4------------6-8-----6--------------------|
   |-6-----------2-----------4--------4----------------------|
   |-----------------------2---------------------------------|

|-----------1--4----------%-----|
|---------4------7---7----%-----|
|-----4----------8---6----%-6---|2x
|---4---4----4-----8---6--%-6---|
|-2-----------------------%-4---|
|-------------------------%-----|
...then play this once:
|-----------1--4---------------|----|
|---------4------7---7---------|----|
|-----4----------8---6---------|-6--|
|---4---4----4-----8---6--4----|-6--|
|-2-----------------------4----|-4--|
|-------------------------2----|----|

Refrain:

Just play softly ||: B B D#m C# :||
       Last time: B D#m F# B

WHAT A GREAT SONG!!!
Comments