Disgruntled Youth - Life As A Yuppie Chords & Tabs

 

Life As A Yuppie Chords & Tabs

Disgruntled Youth Chords & Tabs

Version: 2 Type: Bass Tab 0 ratings
1 star 2 stars 3 stars 4 stars 5 stars
comments

Life As A Yuppie Bass Tab

song: life as a yuppie
by: disgruntled youth	
tabbed by Casey from disgruntled youth e-mail at noyornotcool@aol.com
H=HOLD THE NOTE

INTRO/BREAKDOWN
G:-------------------------------------------------------------
D:-------------2-3------------3-2---------------------------3-2
A:--3-3-3--3-3-----0-0-0--0-0----------------2-3-0-0-0--0-0----
E:--------------------------------3-3-3--3-3-------------------

VERSE 1
G:-----------------------------------------------------------------
D:------------------2-2-2-2-2-2-2-2-----------------3-3-3-3-3-3-3-3
A:--3-3-3-3-3-3-3-3-----------------0-0-0-0-0-0-0-0----------------
E:-----------------------------------------------------------------
[ Tab from: http://www.guitartabs.cc/tabs/d/disgruntled_youth/life_as_a_yuppie_btab_ver_2.html ]
VERSE 2
G:-----------------------------------------------------------------
D:------------------2-2-2-2-2-2-2-2-----------------3-3-2-2-0-0----
A:--3-3-3-3-3-3-3-3-----------------0-0-0-0-0-0-0-0-------------3-3
E:-----------------------------------------------------------------

END
G:--------------------------------------------------------------------
D:-------------2-3------------3-2---------------------------3H--2H--0H
A:--3-3-3--3-3-----0-0-0--0-0----------------2-3-0-0-0--0-0-----------
E:--------------------------------3-3-3--3-3--------------------------
HOLD LAST NOTE AS LONG AS IT WILL GO

INTRO x4
VERSE 1 x 1
VERSE 2 x 1
VERSE 1 x 1
VERSE 2 x 1
INTRO x4
VERSE 1 x 1
VERSE 2 x 1
VERSE 1 x 1
VERSE 2 x 1
INTRO x1
END x 1

THATS IT ANY QUESTIONS OR COMMENTS E-MAIL ME AT NOYORNOTCOOL@AOL.COM

-------SEE YA AT THE SHOW CASEY
Comments