Disclosed Fridge - Guzzle Chords & Tabs

 

Guzzle Chords & Tabs

Disclosed Fridge Chords & Tabs

Version: 2 Type: Tab 0 ratings
1 star 2 stars 3 stars 4 stars 5 stars
comments

Guzzle Tab

#----------------------------------PLEASE NOTE---------------------------------#
#This file is the author's own work and represents their interpretation of the #
#song. You may only use this file for private study, scholarship, or research. #
#------------------------------------------------------------------------------#
#
Date: Mon, 22 Jan 1996 12:46:37 +0100 (MET)
From: johan behrenfeldt 
Subject: Guzzle by Disclosed Fridge

GUZZLE - Disclosed Fridge
written by Hansson/Behrenfeldt


		      v	     v     v   v         v         v     v   v
Riff 1:    e:||---0---0-0-0---0-0---0-0-0-0---4---4-4---3---3-3---3-3-3-3-----||
    B:||---0---0-0-0---0-0---0-0-0-0---4---4-4---3---3-3---3-3-3-3------------||
    G:||---0---0-0-0---0-0---0-0-0-0---5---5-5---4---4-4---4-4-4-4------------||
    D:||---2---2-2-2---2-2---2-2-2-2---6---6-6---5---5-5---5-5-5-5------------||
    A:||---2---2-2-2---2-2---2-2-2-2---6---6-6---5---5-5---5-5-5-5------------||
    E:||---0---0-0-0---0-0---0-0-0-0---4---4-4---3---3-3---3-3-3-3------------||


Riff 2: e:||-------------0-------------------||
    B:||-----------0-------------------------||
        G:||---------0-----------------4-----||
        D:||-------2-----------6-----5-------||
        A:||-----2-----------6-----5---------||
        E:||---0-----------4-----3-----------||


Riff 3: e:||-------------0h2p0-------------------||
    B:||-----------0-----------------------------||
    G:||---------0---------------------4---------||
    D:||-------2---------------6-----5-----------||
    A:||-----2---------------6-----5-------------||
    E:||---0---------------4-----3---------------||


Riff 4: [Heavy Distortion]
		   p     p         p
	e:||-----------------------------------------||
	B:||-----------------------------------------||
	G:||-----------------------------------------||
	D:||---2---2-2---2-2---5---5-5---4-----------||
	A:||---2---2-2---2-2---5---5-5---4-----------||
	E:||---0---0-0---0-0---4---4-4---3-----------||

		   p     p         p         p   p
     e:||-------------------------------------------||
    B:||--------------------------------------------||
    G:||--------------------------------------------||
    D:||---2---2-2---2-2---5---6-5---4---3---2------||
    A:||---2---2-2---2-2---5---5-5---4---3---2------||
    E:||---0---0-0---0-0---4---4-4---3---2---1------||


Riff 5: [Heavy Distortion]
	e:||-------------------------------------||
	B:||-------------------------------------||
	G:||-------------------------------------||
	D:||---2-2-2-2-3-3-3-3-2-2-2-2-4-4-4-4---||
	A:||---2-2-2-2-3-3-3-3-2-2-2-2-4-4-4-4---||
	E:||---0-0-0-0-1-1-1-1-0-0-0-0-3-3-3-3---||

Riff 6: [Heavy Distortion]
	e:||---------------|--12-12b13r12-12s15--||
	B:||--5-5b6r5-5s8--|--12-12b13r12-12s15--||
	G:||--4-4b5r4-4s7--|---------------------||
	D:||---------------|---------------------||
	A:||---------------|---------------------||
	E:||---------------|---------------------||


INTRO

Gtr 1: silent
Gtr 2: Riff 1 (2x)

Gtr 1: Riff 2 (2x)
Gtr 2: Riff 1 (2x)

Gtr 1: Riff 3 (2x)
Gtr 2: Riff 1 (2x)

Gtr 1: Riff 4 (4x)
Gtr 2: Riff 4 (4x)

Gtr 1: Let Heavy Distorted E5 ring.
Gtr 2: Riff 1 (2x)


VERSE

Gtr 1: silent
Gtr 2: Riff 5 (2x)

Gtr 1: Riff 6 (2x)
Gtr 2: Riff 5 (2x)



[ Tab from: http://www.guitartabs.cc/tabs/d/disclosed_fridge/guzzle_tab_ver_2.html ]
From f95-jbe@nada.kth.se Tue Jan 23 00:57:41 1996
 OLGA Guitar Archive Search 
Subject: Re: Misstake about Disclosed Fridge's Guzzle
Message-ID: 
MIME-Version: 1.0
Content-Type: TEXT/PLAIN; charset=US-ASCII
Status: RO

I emailed the song Guzzle by Disclosed Fridge to you yesterday but on my
way home I saw I had tabbed it somewhat wrong.  Please add this tab to
your archive instead.
John

GUZZLE - Fridge
written by Hansson/Behrenfeldt


		       v     v    v    v         v         v     v   v
Riff 1:    e:||---0---0-0-0---0-0---0-0-0-0---4---4-4---3---3-3---3-3-3-3-----||
    B:||---0---0-0-0---0-0---0-0-0-0---4---4-4---3---3-3---3-3-3-3------------||
    G:||---0---0-0-0---0-0---0-0-0-0---5---5-5---4---4-4---4-4-4-4------------||
    D:||---2---2-2-2---2-2---2-2-2-2---6---6-6---5---5-5---5-5-5-5------------||
    A:||---2---2-2-2---2-2---2-2-2-2---6---6-6---5---5-5---5-5-5-5------------||
    E:||---0---0-0-0---0-0---0-0-0-0---4---4-4---3---3-3---3-3-3-3------------||


Riff 2: e:||-------------0-------------------||
    B:||-----------0-------------------------||
        G:||---------0-----------------4-----||
        D:||-------2-----------6-----5-------||
        A:||-----2-----------6-----5---------||
        E:||---0-----------4-----3-----------||


Riff 3: e:||-------------0h2p0-------------------||
    B:||-----------0-----------------------------||
    G:||---------0---------------------4---------||
    D:||-------2---------------6-----5-----------||
    A:||-----2---------------6-----5-------------||
    E:||---0---------------4-----3---------------||


Riff 4: [Heavy Distortion]
		   p     p         p
	e:||-----------------------------------------||
	B:||-----------------------------------------||
	G:||-----------------------------------------||
	D:||---2---2-2---2-2---6---6-6---5-----------||
	A:||---2---2-2---2-2---6---6-6---5-----------||
	E:||---0---0-0---0-0---4---4-4---3-----------||

		   p     p         p         p   p
     e:||-------------------------------------------||
    B:||--------------------------------------------||
    G:||--------------------------------------------||
    D:||---2---2-2---2-2---6---6-6---5---4---3------||
    A:||---2---2-2---2-2---6---6-6---5---4---3------||
    E:||---0---0-0---0-0---4---4-4---3---2---1------||


Riff 5: [Heavy Distortion]
	e:||-------------------------------------||
	B:||-------------------------------------||
	G:||-------------------------------------||
	D:||---2-2-2-2-3-3-3-3-2-2-2-2-5-5-5-5---||
	A:||---2-2-2-2-3-3-3-3-2-2-2-2-5-5-5-5---||
	E:||---0-0-0-0-1-1-1-1-0-0-0-0-3-3-3-3---||

Riff 6: [Heavy Distortion]
	e:||---------------|--12-12b13r12-12s15--||
	B:||--5-5b6r5-5s8--|--12-12b13r12-12s15--||
	G:||--4-4b5r4-4s7--|---------------------||
	D:||---------------|---------------------||
	A:||---------------|---------------------||
	E:||---------------|---------------------||


INTRO

Gtr 1: silent
Gtr 2: Riff 1 (2x)

Gtr 1: Riff 2 (2x)
Gtr 2: Riff 1 (2x)

Gtr 1: Riff 3 (2x)
Gtr 2: Riff 1 (2x)

Gtr 1: Riff 4 (4x)
Gtr 2: Riff 4 (4x)

Gtr 1: Let Heavy Distorted E5 ring.
Gtr 2: Riff 1 (2x)


VERSE

Gtr 1: silent
Gtr 2: Riff 5 (2x)

Gtr 1: Riff 6 (2x)
Gtr 2: Riff 5 (2x)


CHORUS

OUTRO
Comments