Discipline - Nice Boys Finish Last Chords & Tabs

 

Nice Boys Finish Last Chords & Tabs

Discipline Chords & Tabs

Version: 1 Type: Tab 0 ratings
1 star 2 stars 3 stars 4 stars 5 stars
comments

Nice Boys Finish Last Tab

Discipline:
 Nice Boys Finish Last (intro)
-------------------------------
nice!!

E|-----------------------------------------------------------------|
B|-----------------------1-1-1-------------------------------------|
G|-------------0-1-3-3---------3-1-3-3-3---------0-1-3-3-1-1-0-----|
D|-3-3-1-1-1-3---------------------------1-1-1-3---------------1-3-|
A|-----------------------------------------------------------------|
E|-----------------------------------------------------------------|
[ Tab from: http://www.guitartabs.cc/tabs/d/discipline/nice_boys_finish_last_tab.html ]
other end:
-|---------------------------|
-|---------------------------|
-|---------------------------|
-|---------0-1-3-3-1-1-0-----|
-|-1-1-1-3---------------3-1-|
-|---------------------------|

the Verse starts like this:

E|-----------------------------------|
B|-----------------------------------|
G|---1-0-------1-0-----1-0-------0-1-|
D|-1-----1-1-1-----1-----------------|
A|-------------------3-----3-3-3-----|
E|-----------------------------------|

The bridge where you hear the choir singing and drinking goes like this:

E|---------------------------------------------|
B|---------------------------------------------|
G|-3-3-3--3-5-0--------------------------------|
D|-1-1-1--1-3-0-3-3-3--3-5--5-5-5--5-6-5-6-6-6-|
A|--------------1-1-1--1-3--3-3-3--3-4-3-6-6-6-|
E|---------------------------------------4-4-4-|

greeeetz
problems?-> Bertdedecker1@hotmail.com
Comments