Disciple - Horseshoes And Handgrenades Chords & Tabs

 

Horseshoes And Handgrenades Chords & Tabs

Disciple Chords & Tabs

Version: 1 Type: Bass Tab

Horseshoes And Handgrenades Bass Tab

   
Drop C tuning C-G-C-F

F|--------------------------------------------------|
C|--------------------------------------------------|
G|--------------------------------------------------|
C|-6-0-0--3-0-3h5-6/5-3h5--6-0-0--3-0-3h5---x-x-x-x-|

|--------------------------------------------------------|
|--------------------------------------------------------|
|--------------------------------------------------------|
|-6-0-0--3-0-3h5-6/5-3h5-8-8-8-8-8-8-8-8-3-3-3-3-2-2-2-2-|

Short Pause

|-------------|
|-------------|
|-------------|
|-0--0--0--0--|

| |--------------------------------------------------|
|o|--------------------------------------------------|
|o|--------------------------------------------------|
| |-6-0-0--3-0-3h5-6/5-3h5--6-0-0--3-0-3h5---x-x-x-x-|
                                                          x2
|--------------------------------------------------------| |
|--------------------------------------------------------|o|
|--------------------------------------------------------|o|
|-6-0-0--3-0-3h5-6/5-3h5-8-8-8-8-8-8-8-8-3-3-3-3-2-2-2-2-| |

|-----------------------------------------------------------------|
|-----------------------------------------------------------------|
|-----------------------------------------------------------------|
|-0-0-7-0-6-0-7-0-8-0-7-0-6-7-6--0-0-7-0-6-0-7-0-8-0-7-0-11-12-13-|

|------------------------------------------------------------|
|------------------------------------------------------------|
|------------------------------------------------------------|
|-0-0-7-0-6-0-7-0-8-0-7-0-6-7-6--0-0-7-0-6-0-7-0-0--0--0--0--|
[ Tab from: http://www.guitartabs.cc/tabs/d/disciple/horseshoes_and_handgrenades_btab.html ]
| |--------------------------------------------------|
|o|--------------------------------------------------|
|o|--------------------------------------------------|
| |-6-0-0--3-0-3h5-6/5-3h5--6-0-0--3-0-3h5---x-x-x-x-|

                                                          x2
|--------------------------------------------------------| |
|--------------------------------------------------------|o|
|--------------------------------------------------------|o|
|-6-0-0--3-0-3h5-6/5-3h5-8-8-8-8-8-8-8-8-3-3-3-3-2-2-2-2-| |

                                                x4
| |--------------------------------------------| | |-----------------|
|o|--------------------------------------------|o| |-----------------|
|o|----------------------------3-2-0-----------|o| |-3-2-0-----------|
| |-0----0--0---0----0----0--0-------3-2-0-2-3-| | |-------3-2-0-2-3-|

Short Pause

|--------------------------------------------------------|
|--------------------------------------------------------|
|--------------------------------------------------------|
|-6-0-0--3-0-3h5-6/5-3h5-8-8-8-8-8-8-8-8-3-3-3-3-2-2-2-2-|

|--------------------------------------------------|
|--------------------------------------------------|
|--------------------------------------------------|
|-6-0-0--3-0-3h5-6/5-3h5--6-0-0--3-0-3h5---x-x-x-x-|
                                                    
|--------------------------------------------------------|
|--------------------------------------------------------|
|--------------------------------------------------------|
|-6-0-0--3-0-3h5-6/5-3h5-8-8-8-8-8-8-8-8-3-3-3-3-2-2-2-2-|

|--------------------------------------------|
|--------------------------------------------|
|----------------------------3-2-0-----------|
|-0----0--0---0----0----0--0-------3-2-0-2-3-|

|------------------------------------|
|------------------------------------|
|------------------------------------|
|-0----0--0---0----0----0--0---0-0-0-|

END
Thanks For Viewing!