Dirty Rotten Imbeciles - Snap Chords & Tabs

 

Snap Chords & Tabs

Dirty Rotten Imbeciles Chords & Tabs

Version: 1 Type: Tab 0 ratings
1 star 2 stars 3 stars 4 stars 5 stars
comments

Snap Tab

snap


D.R.I.


TRANSCRIBED BY RUDY GUZMAN


guzman_84@hotmail.com


e:-------------------------------------------------------------------------------|
B:-------------------------------------------------------------------------------|
G:-------------------------------------------------------------------------------|
D:----------------5-7-8-8-8-8-8-8--7/8-7--5-5-5-5-5-5-5--3-3-3-3--2-2-2-2--------|
A:--5----5-5-5-5--3-5-6-6-6-6-6-6--5/6-5--3-3-3-3-3-3-3--1-1-1-1--0-0-0-0--0-1-0-|
E:--3----3-3-3-3-----------------------------------------------------------------|

verse
e:-------------------------------------------------------------------------------|
B:-------------------------------------------------------------------------------|
G:-------------------------------------------------------------------------------|
D:----------------5-7-8-8-8-8-8-8--7/8-7--5-5-5-5-5-5-5--3-3-3-3--2-2-2-2--------|
A:--5----5-5-5-5--3-5-6-6-6-6-6-6--5/6-5--3-3-3-3-3-3-3--1-1-1-1--0-0-0-0--0-1-0-|
E:--3----3-3-3-3-----------------------------------------------------------------|

e:-------------------------------------------------------------------------------|
B:-------------------------------------------------------------------------------|
G:-------------------------------------------------------------------------------|
D:----------------5-7-8-8-8-8-8-8--7/8-7--5-5-5-5-5-5-5--3-3-3-3--2-2-2-2--------|
A:--5----5-5-5-5--3-5-6-6-6-6-6-6--5/6-5--3-3-3-3-3-3-3--1-1-1-1--0-0-0-0--0-1-0-|
E:--3----3-3-3-3-----------------------------------------------------------------|


e:----------------------------------|
B:----------------------------------|
G:----------------------------------|
D:--------8-8--5--7-----------------|
A:-5-5-5--6-6--3--5--555--88-5--777-|
E:-3-3-3-------------333--66-3--555-|
[ Tab from: http://www.guitartabs.cc/tabs/d/dirty_rotten_imbeciles/snap_tab.html ]
e:----------------------------------|
B:----------------------------------|
G:----------------------------------|
D:--------8-8--5--7-----------------|
A:-5-5-5--6-6--3--5--555--88-5--777-|
E:-3-3-3-------------333--66-3--555-|


e:------------------------------------------|
B:------------------------------------------|
G:------------------------------------------|
D:------7-7-----------------7-7--3--5-------|
A:-5-5--5-5--5-5--8-8--5-5--5-5--1--3--5-5--|
E:-3-3-------3-3--6-6--3-3-------------3-3--|


e:----------------------------------|
B:----------------------------------|
G:----------------------------------|
D:--------8-8--5--7-----------------|
A:-5-5-5--6-6--3--5--555--88-5--777-|
E:-3-3-3-------------333--66-3--555-|

e:----------------------------------|
B:----------------------------------|
G:----------------------------------|
D:--------8-8--5--7-----------------|
A:-5-5-5--6-6--3--5--555--88-5--777-|
E:-3-3-3-------------333--66-3--555-|


:-----------------------------------|
:-----------------------------------|
:-----------------------------------|
:-----8-7--------------8-7--3--5--7-|
:--5--6-5-5---------5--6-5--1--3--5-|
:--3------3--5h6p5--3---------------|

e:-------------------------------------------------------------------------------|
B:-------------------------------------------------------------------------------|
G:-------------------------------------------------------------------------------|
D:----------------5-7-8-8-8-8-8-8--7/8-7--5-5-5-5-5-5-5--3-3-3-3--2-2-2-2--------|
A:--5----5-5-5-5--3-5-6-6-6-6-6-6--5/6-5--3-3-3-3-3-3-3--1-1-1-1--0-0-0-0--0-1-0-|
E:--3----3-3-3-3-----------------------------------------------------------------|

e:-----------------------------------------------------------------------------------------|
B:-----------------------------------------------------------------------------------------|
G:-----------------------------------------------------------------------------------------|
D:----------------5-7-8-8-8-8-8-8--7/8-7--5-5-5-5-5-5-5--3-3-3-3--2-2-2-2-------------12-12|
A:--5----5-5-5-5--3-5-6-6-6-6-6-6--5/6-5--3-3-3-3-3-3-3--1-1-1-1--0-0-0-0--0-1-0---5--10-10|
E:--3----3-3-3-3-------------------------------------------------------------------3-------|
Comments