Dirty Rotten Imbeciles - Misery Loves Company Chords & Tabs

 

Misery Loves Company Chords & Tabs

Dirty Rotten Imbeciles Chords & Tabs

Version: 1 Type: Tab 0 ratings
1 star 2 stars 3 stars 4 stars 5 stars
comments

Misery Loves Company Tab

misery loves company


D.R.I.


TRANSCRIBED BY RUDY GUZMAN


guzman_84@hotmail.com



e:----------------------------|
B:----------------------------|
G:----------------------------|
D:----------------------------|
A:-10--10--7-7--14-14--16-16--|
E:-8---8---5-5--12-12--14-14--|

verse
e:-----------------------------------------------------------------------------------------|
B:-----------------------------------------------------------------------------------------|
G:-----------------------------------------------------------------------------------------|
D:-----------------------------------------------------------------------------------------|
A:-10--10--7-7--14-14--16-16--14-14--16-16--14-14--16-16--14-14--16-16--14-14--16-16--12-12|
E:-8---8---5-5--12-12--14-14--12-12--14-14--12-12--14-14--12-12--14-14--12-12--14-14--10-10|

e:--------------------------|
B:--------------------------|
G:--------------------------|
D:--------------------------|
A:-12\----------------------|
E:-10\----------------------|

e:----------------------------|
B:----------------------------|
G:----------------------------|
D:----------------------------|
A:-10--10--7-7--14-14--16-16--|
E:-8---8---5-5--12-12--14-14--|
[ Tab from: http://www.guitartabs.cc/tabs/d/dirty_rotten_imbeciles/misery_loves_company_tab.html ]
verse
e:-----------------------------------------------------------------------------------------|
B:-----------------------------------------------------------------------------------------|
G:-----------------------------------------------------------------------------------------|
D:-----------------------------------------------------------------------------------------|
A:-10--10--7-7--14-14--16-16--14-14--16-16--14-14--16-16--14-14--16-16--14-14--16-16--12-12|
E:-8---8---5-5--12-12--14-14--12-12--14-14--12-12--14-14--12-12--14-14--12-12--14-14--10-10|

e:--------------------------|
B:--------------------------|
G:--------------------------|
D:--------------------------|
A:-12\----------------------|
E:-10\----------------------|

e:----------------------------|
B:----------------------------|
G:----------------------------|
D:----------------------------|
A:-10--10--7-7--14-14--16-16--|
E:-8---8---5-5--12-12--14-14--|

verse
e:-----------------------------------------------------------------------------------------|
B:-----------------------------------------------------------------------------------------|
G:-----------------------------------------------------------------------------------------|
D:-----------------------------------------------------------------------------------------|
A:-10--10--7-7--14-14--16-16--14-14--16-16--14-14--16-16--14-14--16-16--14-14--16-16--12-12|
E:-8---8---5-5--12-12--14-14--12-12--14-14--12-12--14-14--12-12--14-14--12-12--14-14--10-10|

e:--------------------------|
B:--------------------------|
G:--------------------------|
D:--------------------------|
A:-12\----------------------|
E:-10\----------------------|
Comments