Dirty Rotten Imbeciles - Marriage Chords & Tabs

 

Marriage Chords & Tabs

Dirty Rotten Imbeciles Chords & Tabs

Version: 1 Type: Tab 0 ratings
1 star 2 stars 3 stars 4 stars 5 stars
comments

Marriage Tab

marriage


D.R.I.


TRANSCRIBED BY RUDY GUZMAN


guzman_84@hotmail.com

 4 Times
e:---------------------------------|
B:---------------------------------|
G:---------------------------------|
D:--5-5-5-5--3--5------------------|
A:--3-3-3-3--1--3--4-3-1--3--6-5-3-|
E:---------------------------------|

 2 Times
e:-----------------------------|
B:-----------------------------|
G:-----------------------------|
D:------5---8--7-------3--5----|
A:--5---3---6--5---5---1--3--3-|
E:--3--------------3---------1-|

e:---------------------------------|
B:---------------------------------|
G:---------------------------------|
D:------5---8--7-------3-3--5-5----|
A:--5---3---6--5---5---1-1--3-3--3-|
E:--3--------------3-------------1-|
[ Tab from: http://www.guitartabs.cc/tabs/d/dirty_rotten_imbeciles/marriage_tab.html ]
e:-------------------------------------------|
B:-------------------------------------------|
G:-6B--11B---14B--13B---6B--11B--9B--8B--8B--|
D:-------------------------------------------|
A:-------------------------------------------|
E:-------------------------------------------|

 6 Times
e:---------------------------------|
B:---------------------------------|
G:---------------------------------|
D:--5-5-5-5--3--5------------------|
A:--3-3-3-3--1--3--4-3-1--3--6-5-3-|
E:---------------------------------|

 2 Times
e:-----------------------------|
B:-----------------------------|
G:-----------------------------|
D:------5---8--7-------3--5----|
A:--5---3---6--5---5---1--3--3-|
E:--3--------------3---------1-|

e:------------------------------|
B:------------------------------|
G:------------------------------|
D:------5---8--7-------3--10--5-|
A:--5---3---6--5---5---1--8---3-|
E:--3--------------3------------|
Comments