Dirty Rotten Imbeciles - Id Rather Be Sleeping Chords & Tabs

 

Id Rather Be Sleeping Chords & Tabs

Dirty Rotten Imbeciles Chords & Tabs

Version: 1 Type: Tab 0 ratings
1 star 2 stars 3 stars 4 stars 5 stars
comments

Id Rather Be Sleeping Tab

D.R.I.

song: equal people

album: dealing with it


tabbed by Rudy Guzman

guzman_84@hotmil.com



|---------------------|
|---------------------|
|---------------------|
|-9-9--5-5--2-2--5--7-|
|-7-7--3-3--0-0--3--5-|
|---------------------|

|--------------------|
|--------------------|
|--------------------|
|-9-9--5-5--2-2--7-7-|
|-7-7--3-3--0-0--5-5-|
|--------------------|

[ Tab from: http://www.guitartabs.cc/tabs/d/dirty_rotten_imbeciles/id_rather_be_sleeping_tab.html ]
|--------------3NH--|
|----------------3NH|
|--9-9-9--5-5-------|
|--9-9-9--5-5-------|
|--7-7-7--3-3-------|
|-------------------|

|--------------|-------|---------|
|--------------|-------|---------|
|--9-9-9--5-5--|-----4-|4-4-4-4-4|
|--9-9-9--5-5--|---4---|4-4-4-4-4|
|--7-7-7--3-3--|-2-----|2-2-2-2-2|
|--------------|-------|---------|

|---------------|-------------|--------|-----------|
|---------------|-------------|--------|-----------|
|--9-9-9--------|-----4-------|--------|-----------|
|--9-9-9-10--10-|--4-----4----|--------|-9-9-9-9-9-|
|--7-7-7-10--10-|-------------|--------|-9-9-9-9-9-|
|--------8---8--|-------------|-7--8-7-|-7-7-7-7-7-|
Comments