Dirty Rotten Imbeciles - I Dont Need Society Chords & Tabs

 

I Dont Need Society Chords & Tabs

Dirty Rotten Imbeciles Chords & Tabs

Version: 1 Type: Tab 0 ratings
1 star 2 stars 3 stars 4 stars 5 stars
comments

I Dont Need Society Tab

   
i dont need society


D.R.I.


TRANSCRIBED BY RUDY GUZMAN


guzman_84@hotmail.com


e:-----------------------------------------------|
B:-----------------------------------------------|
G:-----------------------------------------------|
D:-9-9-9-9-9-9-9-9-9-9-9-9-9-9-9-9-9-9-9-9-9-9-9-|
A:-9-9-9-9-9-9-9-9-9-9-9-9-9-9-9-9-9-9-9-9-9-9-9-|
E:-7-7-7-7-7-7-7-7-7-7-7-7-7-7-7-7-7-7-7-7-7-7-7-|

verse
e:------------------------------------------------------------|
B:------------------------------------------------------------|
G:------------------------------------------------------------|
D:-9--9-9-9--9--9-9-9--9--9-9-9--9--9-9-9--9--9-9-9--9--9-9-9-|
A:-9--9-9-9--9--9-9-9--9--9-9-9--9--9-9-9--9--9-9-9--9--9-9-9-|
E:-7--7-7-7--7--7-7-7--7--7-7-7--7--7-7-7--7--7-7-7--7--7-7-7-|


e:----------------------------------|---7nh-------------------------------|---------|
B:----------------------------------|-------7nh-7nh-7nh-------------------|---------|
G:----------------------------------|-------------------------------------|---------|
D:----------------------------------|-------------------------------------|---------|
A:-9---8---7---6---5--5-5-5-5-4--9--|-------------------------------------|-9-9-9-9-|
E:-7---6---5---4---3--3-3-3-3-2--7--|---------------------7nh-7nh-7nh-7nh-|-7-7-7-7-|


e:-------------------------------------------------------------|
B:-------------------------------------------------------------|
G:-------------------------------------------------------------|
D:-------------------------------------------------------------|
A:--9-9--5-5--9-9--5-5--9-9--5-5--9-9--5-5--9-9--5-5--9-9--5-5-|
E:--7-7--3-3--7-7--3-3--7-7--3-3--7-7--3-3--7-7--3-3--7-7--3-3-|
[ Tab from: http://www.guitartabs.cc/tabs/d/dirty_rotten_imbeciles/i_dont_need_society_tab.html ]
:--------------------------------------------|
:--------------------15B---------------------|
:--------------------------------------------|
:-4-----4--7----14B---------4-----4--7-------|
:-2--5--2--5----------------2--5--2--5-------|
:----3-------------------------3-------------|

e:-------------------------------------------------------------|
B:-------------------------------------------------------------|
G:-------------------------------------------------------------|
D:-------------------------------------------------------------|
A:--9-9--5-5--9-9--5-5--9-9--5-5--9-9--5-5--9-9--5-5--9-9--5-5-|
E:--7-7--3-3--7-7--3-3--7-7--3-3--7-7--3-3--7-7--3-3--7-7--3-3-|

:--------------------------------------------|
:--------------------15B---------------------|
:--------------------------------------------|
:-4-----4--7----14B---------4-----4--7-------|
:-2--5--2--5----------------2--5--2--5-------|
:----3-------------------------3-------------|

e:-------------------------------------------------------|
B:-------------------------------7nh-7nh-7nh-7nh-7nh-7nh-|
G:-------------------------------------------------------|
D:-------------------------------------------------------|
A:--9-9-9-9-9-9--5-5-5-5-5-5--9--------------------------|
E:--7-7-7-7-7-7--3-3-3-3-3-3--7--------------------------|

e:-------------------------------------------------------------|
B:-------------------------------------------------------------|
G:-------------------------------------------------------------|
D:-------------------------------------------------------------|
A:--9-9--5-5--9-9--5-5--9-9--5-5--9-9--5-5--9-9--5-5--9-9--5-5-|
E:--7-7--3-3--7-7--3-3--7-7--3-3--7-7--3-3--7-7--3-3--7-7--3-3-|

:--------------------------------------------|
:--------------------15B---------------------|
:--------------------------------------------|
:-4-----4--7----14B---------4-----4--7-------|
:-2--5--2--5----------------2--5--2--5--9\---|
:----3-------------------------3--------7\---|
Comments