Dirty Pretty Things - Last Of The Small Town Playboys Chords & Tabs

 

Last Of The Small Town Playboys Chords & Tabs

Dirty Pretty Things Chords & Tabs

Version: 1 Type: Chords

Last Of The Small Town Playboys Chords

   
This tab is for the main chords to the song 'Last Of The Small Town Playboys'

I'm not sure how to play certain bits but I'm bored so I'll tab it anyway =D

-----------------------------------------------------------------------|
                 Last Of The Small Town Playboys - Dirt Pretty Things--|
Tabbed by:Dan
Email:

Tuning:standard (EADGBE)


This is the intro riff heard at the start of the song through to where he sings 'What do
do if the world owes you something' etc... (listen to it to get the timing, it's pretty
)


Chords: D minor,  A#, A (barred)

[ Tab from: http://www.guitartabs.cc/tabs/d/dirty_pretty_things/last_of_the_small_town_playboys_crd.html ]
e|-5----5----5----5----5--x--6----6----6----6----6-----5----5----5----5----5|
B|-6----6----6----6----6--x--6----6----6----6----6-----5----5----5----5----5|
G|-7----7----7----7----7--x--7----7----7----7----7-----6----6----6----6----6|
D|-7----7----7----7----7--x--8----8----8----8----8-----7----7----7----7----7|
A|-5----5----5----5----5--x--8----8----8----8----8-----7----7----7----7----7|
E|-5----5----5----5----5--x--6----6----6----6----6-----5----5----5----5----5|
'What do you do if the world owes you something' part... Then you play a D5 power chord 
it builds up to the 'i want you, i need you' part.

Then you play a D5 followed by C5 in time with the song (this may sound wrong at first
play it to the song and you'll realise it's not, except on the song there is another
and a bass guitar which broadens the sound. In fact knowing me it is probably wrong =P 
the first bit isn't!!!!

         'I want you'                'I need you'
e|---------------------------------------------------------------------------|
B|---------------------------------------------------------------------------|
G|-------7------7------7------7------5------5------5------5------------------|
D|-------7------7------7------7------5------5------5------5------------------|
A|-------5------5------5------5------3------3------3------3------------------|
E|---------------------------------------------------------------------------|

Will tab the rest when I can be arsed, lead parts losely based around major pentatonics 
are all typical libertines/carl barat-ish stuff.


| /  slide up
|   slide down
| h  hammer-on
| p  pull-off
| ~  vibrato
| +  harmonic
| x  Mute note
===============================================================================