Dirty Pretty Things - Gentry Cove Chords & Tabs

 

Gentry Cove Chords & Tabs

Dirty Pretty Things Chords & Tabs

Version: 2 Type: Tab

Gentry Cove Tab

   
-------------------------------------------------------------------------------
			Dirty Pretty Things - Gentry Cove
-------------------------------------------------------------------------------

tabbed by elliot

www.myspace.com/elliotasfuck


these 2 bits are played pretty much all the way through.

e|---7-------------5--7--5-----------------|
B|------8--7-----------------7---5---------|
G|-----------------------------------------|      x 2
D|-----------------------------------------|
A|-----------------------------------------|
E|-----------------------------------------|


e|------7--7--x--------------5--|
B|---------------8--8--7--7-----|
G|------------------------------|       x 2
D|------------------------------|
A|------------------------------|
E|------------------------------|

[ Tab from: http://www.guitartabs.cc/tabs/d/dirty_pretty_things/gentry_cove_tab_ver_2.html ]
e|----x---|
B|----x---|   (some muted notes are also played if you listen
G|----x---|
D|----x---|
A|----x---|
E|--------|

these chords are bashed out after the inital run of the notes.
you play them for like 8 bars then quick them a quick little strum before moving on to 
next chord. this is just the pattern, you play them more than twice.

       C#m                  D

e|----4--x--4------------5--x--5------|
B|----5--x--5------------7--x--7------|
G|----6--x--6------------7--x--7------|
D|----6--x--6------------7--x--7------|
A|----4--x--4------------5--x--5------|
E|------------------------------------|


    E    Em

e|--7--x--7----|
B|--9--x--8----|
G|--9--x--9----|
D|--9--x--9----|
A|--7--x--7----|
E|-------------|

song is key of A

A B C# D E F# G#

please rate the tab and let me know what you think of it. cheers. elliot