Dirty Pretty Things - Doctors And Dealers Chords & Tabs

 

Doctors And Dealers Chords & Tabs

Dirty Pretty Things Chords & Tabs

Version: 3 Type: Tab

Doctors And Dealers Tab

   
Dirty Pretty Things - Doctors and Dealers
Tabbed by Brian

Chords

F - 1,3,3,2,1,1  or  X,8,10,10,10,8

Dm - x,5,7,7,6,5  or  10,12,12,10,10,10

Gm - 3,5,5,3,3,3  or  X,10,12,12,9,10

A# - 6,8,8,7,6,6

Am  -  5,7,7,5,5,5

C - 8,10,10,9,8,8

Intro

E------5----5---5------x----x----x----10-----x----x------x---------|
A------7----7---7------x----x----x----12-----8----8------x---------|
D------7----7---7------5----5----5----12----10---10------x---------|
G------5----5---5------7----7----7----10----10---10------7---------|
b------5----5---5------6----6----6----10----10---10------8---------|
e------5----7---8------7----5----7----10-----8---10------7---------|

Then strum

Gm 10th fret, F 8th fret, Gm 3rd fret, A#, C

Verse

F                                          Dm
I don't beleive in anything they tell me's set in stone
Gm                                                A#             C
They said that we're together but im sat here on my own
F                                          Dm
in this company of strangers this trigger happy scene
Gm                                                A#             C
Well if a heart do like a hind then there is nothing in between

Dm                    Gm     Dm                 C
Oh no, no i don't mind. Oh no, no i don't mind

Main Riff
[ Tab from: http://www.guitartabs.cc/tabs/d/dirty_pretty_things/doctors_and_dealers_tab_ver_3.html ]
E-------------------------------------------------------------------|
A-------------------------------------------------------------------|
D-------------------------------------------------------------------|
G----------------------------------------7--------------------------|
b-----------------------------------6-------------------------------|
e----5---6-------8---6----5h6h5-------------------------------------|

(Main Riff over the top of chorus)
F                A                  A#                    C
Cause i can call someone to bring the fight on (the doctors and the dealers)
F          A       A#                        C
Get someone to shed some light on (miracle cure, soul stealers)
F          A       A#                           C
Crack pot quacks with cracked up ego's (prescribing old placebos)
F         A           A#                       C
Collecting junk that we don't need, no.

Other Riff

E------------------------------------------------------------------|
A------------------------------------------------------------------|
D------------------------------------------------------------------|
G-------7------------------------------------------------7---------|
b-----------6-----8------10-----10-----8------6--------------------|
e------------------------------------------------------------------|

(Play other riff on top of these lyrics)

                         F                      Dm
They come to you, they come to me
                         F                      Dm
They come in droves, oh one, two, three


Right, thats it, I think. Absolutely class song, excellent band, what more needs to be said.
If theres anyway somenoe can make this better then please do it, or email me it first so 
not put to shame.

L1bert1ne@hotmail.co.uk

Long live the libertines!!