Dirty Pretty Things - Deadwood Chords & Tabs

 

Deadwood Chords & Tabs

Dirty Pretty Things Chords & Tabs

Version: 1 Type: Tab

Deadwood Tab

   
-------------------------------------------------------------------------------
		     Dirty Pretty Things - Deadwood
-------------------------------------------------------------------------------

tabbed by elliot
www.myspace.com/elliotasfuck

this song needs work to make it sound decent, pressuring the chords with your left
hand. just play around with it till it sounds right. any feedback is welcome. except
bad stuff ;)


intro:

 Dm

e|--5--5--x---5--5--x---5--5--x---5--5--5-----------|
B|--6--6--x---6--6--x---6--6--x---6--6--6-----------|
G|--7--7--x---7--7--x---7--7--x---7--7--7-----------|
D|--7--7--x---7--7--x---7--7--x---7--7--7-----------|
A|--5--5--x---5--5--x---5--5--x---5--5--5-----------|
E|--------------------------------------------------|


   F

e|--1--1--x----1--1--x-----1--1--x----1--1--1-------|
B|--1--1--x----1--1--x-----1--1--x----1--1--1-------|
G|--2--2--x----2--2--x-----2--2--x----2--2--2-------|
D|--3--3--x----3--3--x-----3--3--x----3--3--3-------|
A|--3--3--x----3--3--x-----3--3--x----3--3--3-------|
E|--1--1--x----1--1--x-----1--1--x----1--1--1-------|


    Gm7

e|--3--3--x----3--3--x-----3--3--x----3--3--x-------|
B|--3--3--x----3--3--x-----3--3--x----3--3--x-------|
G|--3--3--x----3--3--x-----3--3--x----3--3--x-------|
D|--3--3--x----3--3--x-----3--3--x----3--3--x-------|
A|--5--5--x----5--5--x-----5--5--x----5--5--x-------|
E|--3--3--x----3--3--x-----3--3--x----3--3--x-------|

    A
[ Tab from: http://www.guitartabs.cc/tabs/d/dirty_pretty_things/deadwood_tab.html ]
e|-----5--5-----5--5--5-----(  ---------------------|
B|-----5--5-----5--5--5-----(  ---------------------|
G|-----6--6-----6--6--6-----( last------------------|
D|-----7--7-----7--7--7-----(  bit------------------|
A|-----7--7-----7--7--7-----(  3 times--------------|
E|-----5--5-----5--5--5-----(  i think--------------|

these chords are repeated through most of the songs barring the bit before the 
and the ohhh bit itself when this is played:

       F                        Gm7

e|-----8----8----8--8-------------3-----3----3-3-------------|
B|-----10---10---10-10------------3-----3----3-3-------------|
G|-----10---10---10-10------------3-----3----3-3-------------|
D|-----10---10---10-10------------3-----3----3-3-------------|
A|-----8----8----8--8-------------5-----5----5-5-------------|
E|--------------------------------3-----3----3-3-------------|


outro:

anthony plays this:


bash A a few times then play

e|----12----13----12----13----------------|
B|----12----13----12----13----------------|
G|----13----14----13----14----------------|
D|----12----13----12----13----------------|
A|----14----15----14----15----------------|
E|----12----13----12----13----------------|

bash A some more then:

e|----12-----12-----12-----12--------------|
B|----14--/--15-----14--/--15--------------|
G|----14--/--15-----14--/--15--------------|
D|-----------------------------------------|
A|-----------------------------------------|
E|-----------------------------------------|

then the 1st bit again.


ok thats it. (im not sure what anthony plays during the whole song, but i know he plays 
the same chords as  carl except he plays a C also)