Dirty Pretty Things - Bang Bang Youre Dead Chords & Tabs

 

Bang Bang Youre Dead Chords & Tabs

Dirty Pretty Things Chords & Tabs

Version: 3 Type: Tab

Bang Bang Youre Dead Tab

   
I havent got all of this right, but its an improvement of the other tab
Great song, love it
[ Tab from: http://www.guitartabs.cc/tabs/d/dirty_pretty_things/bang_bang_youre_dead_tab_ver_3.html ]
     Dm                                 C
e|----5-5-5-5-5-5-5-5-5-5-5-5-5-5-5-5---3-3-3-3--------------------------------------------------|
B|----6-6-6-6-6-6-6-6-6-6-6-6-6-6-6-6---5-5-5-5--------------------------------------------------|
G|----7-7-7-7-7-7-7-7-7-7-7-7-7-7-7-7---5-5-5-5--------------------------------------------------|
D|----7-7-7-7-7-7-7-7-7-7-7-7-7-7-7-7---5-5-5-5--------------------------------------------------|
A|----5-5-5-5-5-5-5-5-5-5-5-5-5-5-5-5---3-3-3-3--------------------------------------------------|
E|-----------------------------------------------------------------------------------------------|
Then the solo thing                             (Bend the 8th to 10)
e|--/-10-10---10-10-5-5--5-5--5-5----------------------------------------------|
B|--/-8--8----8--8--6-6--8-6--6-6-----------------6--8-(10)-8-6--8-6-----------|
G|-----------------------------7---------5-7--5-7------------------------------|
D|----------------------------------5-h7---------------------------------------|
A|-----------------------------------------------------------------------------|
E|-----------------------------------------------------------------------------|
Bend all the 8ths again
e|-------------------------------------13-13-13-12-12-12-10-10-10-8-8-8--6--5---------------------|
B|---8-(10)-6---8--6---8--6---8--6----------------------------------------------------------------|
G|------------7------7------7------7--------------------------------------------------------------|
D|------------------------------------------------------------------------------------------------|
A|------------------------------------------------------------------------------------------------|
E|------------------------------------------------------------------------------------------------|

e|------------------------|
B|----8-(bend-to-10)-8-6--|
G|------------------------|
D|------------------------|
A|------------------------|
E|------------------------|

Now the bridge bit
                   Fast picking
e|------10----10---10-10-10-9-9-9-8-8-8-7-7-7------|
B|-------------------------------------------------|
G|---7-----7-----7---------------------------------|
D|-------------------------------------------------|
A|-------------------------------------------------|
E|-------------------------------------------------|
(X4 but on the last one it goes...)
e|------10----10-------------------------------------------------------------------------|
B|---------------------------------------------------------------------------------------|
G|---------------------------------------------------------------------------------------|
D|--7------7-----7--6-6---6-7-6--6-6--6-7-6----------------------------------------------|
A|---------------------------------------------------------------------------------------|
E|---------------------------------------------------------------------------------------|


| /  slide up

| /  slide up
|   slide down
| h  hammer-on
| p  pull-off
| ~  vibrato
| +  harmonic
| x  Mute note
=================