Dirty Pretty Things - Bang Bang Youre Dead Chords & Tabs

 

Bang Bang Youre Dead Chords & Tabs

Dirty Pretty Things Chords & Tabs

Version: 2 Type: Tab

Bang Bang Youre Dead Tab

   
intro
Dm x15 A Fx4 Ax4 Dmx8 A#x4 A#mx4 F

|-8----8-8----5-5----5-------------5--------------5-5-5-|
|-10---1010---6-6--8---8--6--------6--------------6-8-6-|
|---------------------------7--5-7-7--575-----5-7-----7-|
|----------------------------------------7-5-7----------|
|-------------------------------------------------------|
|-------------------------------------------------------|

|-------------------------13~12~10~-8-5------------|
|------8-6-6--8-6-6--8-6----------------8-6-6------|
|----------7------7-------------------------7-5-7--| 
|-7-5----------------------------------------------|
|--------------------------------------------------|
|--------------------------------------------------|
[ Tab from: http://www.guitartabs.cc/tabs/d/dirty_pretty_things/bang_bang_youre_dead_tab_ver_2.html ]
verse 1
F          A           Dm
I knew all along i was right at the start
A#                         A#m    F
that the seeds of the weeds,      that grew in your heart
F                 A                  Dm
self satisfaction for the fashion to prone to tear us apart
A# 
oh i gave you a misers touch
       A#m 
as you turned round to scratched at my heart
Dm    A                 Dm   A A# A
Ooooh what did you expect
Dm    A                        Dm 
Ooooh tell me what did you expect
C
To lay it on my head
C
so it was all upon my head
F    A           Dm    A#        A# A G  F
Bang Bang You're Dead, always so easily lead
F    A           Dm    A#          A# A    G  F
bang bang you're dead, put all the rumours to bed
F    A           Dm        A G
bang bang you're dead

verse 2
F          A                Dm
I knew all along that i was fooled to believe
A#                              A#m            F
there was nothing but spite you realising the words that you read

And I'll lose you to confuse you on but oh they are so tottery
put it to bed kick it in the head oh won't they just let it be

interlude

Dm                 A

|----10----10----10~9~8~5~-----|
|-10----10---------------------|
|------------------------------| 3 times    A A  A A# A (twice)  
|------------------------------|
|------------------------------|
|------------------------------|

chorus


I got the most parts of it from Gareth Hooper and tried to figure out the rest.
It's only a model how one can play it,
I don't really play everything exactly how it's carl plays it on the record
but I think this tab is good enough to understand the song.
(hopefully the lyrics are right,they might be wrong in some places...)

V.Eberlein

www.dirtyprettythingsband.com