Dirty Pretty Things - Bang Bang Youre Dead Chords & Tabs

 

Bang Bang Youre Dead Chords & Tabs

Dirty Pretty Things Chords & Tabs

Version: 1 Type: Tab

Bang Bang Youre Dead Tab

   
Hey!! Great new band carl barat progressing well.... i want to say it is discrasfull
no one has tabbed this or any other DPT songs and i am the 1st one to tab a dirty
pretty thing tab on any site... so, here i go.........

Intro:
e|-5-5-5-5-5-5-5-55-5-5---5-5-5-5-5-5-55-5-5-5-5-5-5-5-----|
B|-6-6-6-6-6-6-6-66-6-6---6-6-6-6-6-6-66-6-6-6-6-6-6-5-----|
G|-7-7-7-7-7-7-7-77-7-7---7-7-7-7-7-7-77-7-7-7-7-7-7-6-----|
D|-7-7-7-7-7-7-7-77-7-7---7-7-7-7-7-7-77-7-7-7-7-7-7-7-----|
A|-5-5-5-5-5-5-5-55-5-5---5-5-5-5-5-5-55-5-5-5-5-5-5-7-----|
E|---------------------------------------------------5-----|

Intro/Solo:
e|-10--13-13-13-13-13-------------------------------------------------|
B|---------------------10----10---------------------------------------|
G|------------------------12----12----10-------------------10---------|
D|---------------------------------12---------------------------------|
A|----------------------------------------12-10----------10-----------|
E|----------------------------------------------13-10-13--------------|

e|-----------------------------------------------------13-12-10-------------|
B|--------------------------------------------------------------13-10-------|
G|--12b(14)------12b(14)-----12b(14)------12b(14)--------------------12b(14)|
D|----------12-----------12----------12-----------12------------------------|
A|--------------------------------------------------------------------------|
E|--------------------------------------------------------------------------|
[ Tab from: http://www.guitartabs.cc/tabs/d/dirty_pretty_things/bang_bang_youre_dead_tab.html ]
Verse:
e|-5-5-5-5-5-5-5-5-5-5-5-5-5-5-5-5-3-3-3-3-3-3-3-3-5-5-5-5-5-5-5-----|
B|-6-6-6-6-5-5-5-5-6-6-6-6-6-6-6-6-3-3-3-3-3-3-3-3-6-6-6-6-6-6-6-----|
G|-7-7-7-7-6-6-6-6-7-7-7-7-7-7-7-7-4-4-4-4-4-4-4-4-7-7-7-7-7-7-7-----|x2
D|-7-7-7-7-7-7-7-7-7-7-7-7-7-7-7-7-5-5-5-5-5-5-5-5-7-7-7-7-7-7-7-----|
A|-5-5-5-5-7-7-7-7-5-5-5-5-5-5-5-5-5-5-5-5-5-5-5-5-5-5-5-5-5-5-5-----|
E|---------5-5-5-5-----------------3-3-3-3-3-3-3-3-------------------|
    "I knew all along"    on second time intead of doing ^ do Gm

Pre-Chorus
e|-5-5-5-5-5-5-5-5-5-5-5-5-5-5-5-5|
B|-6-6-6-6-5-5-5-5-6-6-6-6-5-5-5-5|
G|-7-7-7-7-6-6-6-6-7-7-7-7-6-6-6-6|x2
D|-7-7-7-7-7-7-7-7-7-7-7-7-7-7-7-7|
A|-5-5-5-5-7-7-7-7-5-5-5-5-7-7-7-7|
E|---------5-5-5-5---------5-5-5-5|
    "OH  what did you expect"

Chorus
e|-5-5-5-5-5-5-5-5-5-5-5-5-3-3-5-5|
B|-6-6-6-6-5-5-5-5-6-6-6-6-3-3-5-5|
G|-7-7-7-7-6-6-6-6-7-7-7-7-4-4-6-6|x2
D|-7-7-7-7-7-7-7-7-7-7-7-7-5-5-7-7|
A|-5-5-5-5-7-7-7-7-5-5-5-5-5-5-7-7|
E|---------5-5-5-5---------3-3-5-5|
  "bang bang you're dead"
near the end there is quiter chorus bit, that goes like this,
e|-1-1-1-1--5-5-5-5--5-5-5-5-5-5-5-5|
B|-1-1-1-1--5-5-5-5--6-6-6-6-6-6-6-6|
G|-2-2-2-2--6-6-6-6--7-7-7-7-7-7-7-7|x2
D|-3-3-3-3--7-7-7-7--7-7-7-7-7-7-7-7|
A|-3-3-3-3--7-7-7-7--5-5-5-5-5-5-5-5|
E|-1-1-1-1--5-5-5-5-----------------|
"bang bang you're dehehehead"

VERSE
Then
e|---5----5---10-10-10-9-9-9-8-8-8-7-7-7----|
B|---6----6---------------------------------|
G|---7----7---------------------------------|
D|---7----7---------------------------------|x4
A|-5-5--5-5---------------------------------|
E|------------------------------------------|
THEN
e|-5-5--5--6--5---------|
B|-5-5--5--6--5---------|
G|-6-6--6--7--6---------|
D|-7-7--7--8--7---------|
A|-7-7--7--8--7---------|
E|-5-5--5--6--5---------|

Outro
e|-10-10-10-10--1--------------------|
B|-10-10-10-10--1--------------------|
G|-11-11-10-10--4--------------------|
D|-12-12-12-12--3--~-----------------|
A|-12-12-12-12--3--------------------|
E|-10-10-10-10--1--------------------|

Ok thats it, oh my god you don't know how long it took me to tab that let alone find
out what the chords were...... email address is on my other tabs, so comments and rate
plz!!!I think its all right, i worked it out all alone!

PETE DOHERTY IS INNOCENT!!! But Carl Bar^at Rocks 

http://www.dirtyprettythingsband.com/