Dirty Pretty Things - Bang Bang Youre Dead Chords & Tabs

 

Bang Bang Youre Dead Chords & Tabs

Dirty Pretty Things Chords & Tabs

Version: 1 Type: Bass Tab

Bang Bang Youre Dead Bass Tab

   
Song: Bang Bang You're Dead
Band: Dirty Pretty Things
Album: Waterloo To Anywhere
Tabbed by: Scott Reid

Tuning: EADG

This sounds best if you play it along with the song :) enjoy

Intro
|------------------------------------------------|
|------------0-----0----------/5-3---------------|
|------0000----210---210-1111------/3-5-11111132-|
|-1111-------------------------------------------|

Verse:
|------------------------------------------|
|-----------0-----0----------7777----------|
|------0000---210---210-1111------11111132-|
|-1111-------------------------------------|

|---------------------------------|
|-----------0-----0---------------|
|------0000---210---210-1~-----2~-|
|-1111----------------------------|

Pre-chorus: 'Oh what did you expect'
|---------------------|
|-0--------0----------|
|--2120121--212-11121-|
|---------------------|

Play in time with guitar: 'To lay it on my head'
|--------------------|
|--------------------|
|-3--3----3------3333|
|--------------------|

Chorus:
|----------------------------|
|------------0123------------|
|-------0000------111-00-----|
|-1111-------------------3-1-|

|-------------------------------------|
|------------0123---------------------|
|-------0000------111-00-----3~---1~--|
|-1111-------------------3-1----------|

Verse:
|------------------------------------------|
|-----------0-----0----------7777----------|
|------0000---210---210-1111------11111132-|
|-1111-------------------------------------|
[ Tab from: http://www.guitartabs.cc/tabs/d/dirty_pretty_things/bang_bang_youre_dead_btab.html ]
|---------------------------------|
|-----------0-----0---------------|
|------0000---210---210-1~-----2~-|
|-1111----------------------------|

Under solo:
|-------0---------0----------0-----------|
|-0------210-0------210-0------210-0-----|
|---210-------210---------210--------210-|
|----------------------------------------|

|-------------|
|-------------|
|-11121-11121-|
|-------------|

Chorus:
|----------------------------|
|------------0123------------|
|-------0000------111-00-----|
|-1111-------------------3-1-|

|-------------------------------------|
|------------0123---------------------|
|-------0000------111-00-----3~---1~--|
|-1111-------------------3-1----------|

Under intro solo thing:
|------------------------------------------------|
|------------0-----0----------/5-3---------------|
|------0000----210---210-1111------/3-5-11111132-|
|-1111-------------------------------------------|

Pre-chorus: 'Oh what did you expect'
|---------------------|
|-0--------0----------|
|--2120121--212-11121-|
|---------------------|

Play in time with guitar: 'To lay it on my head'
|--------------------|
|--------------------|
|-3--3----3------3333|
|--------------------|

Chorus:
|----------------------------|
|------------0123------------|
|-------0000------111-00-----|
|-1111-------------------3-1-|

|-------------------------------------|
|------------0123---------------------|
|-------0000------111-00-----3~---1~--|
|-1111-------------------3-1----------|

Then its basically improvisation till
End on:
A |-3-|