Dire Straits - Wild West End Chords & Tabs

 

Wild West End Chords & Tabs

Dire Straits Chords & Tabs

Version: 1 Type: Tab

Wild West End Tab

   
----------------------------------------------------------------------------
		      WILD WEST END - Dire Straits
----------------------------------------------------------------------------
Tabbed by: Jimbo
Email: james55982@aol.com

Here is the basic progression of the song.  I'm confident that it is accurate,
and I've put together three different ways to play it - all the same notes,
just in different places on the guitar.  You pick.

The first version is easiest, but the hammer-on is an octave higher than in the
actual song.  The third version is hardest but sounds closest to the real thing.


Tuning: Regular - EADGBe


Version 1

    Dmaj
e|--10h12--12--12--12-----10--10--10-----10--10--10-----10-----------------|
B|--10-----10--10--10-----10--10--10-----12--12--12-----10-----------------|
G|--11-----11--11--11-----11--11--11-----11--11--11-----11-----------------|
D|--12-----12--12--12-----12--12--12-----12--12--12-----12-----------------|
A|--x------x---x---x------x---x---x------x---x---x------x------------------|
E|-------------------------------------------------------------------------|

    Emin7                 Gmaj
e|--7------7---7---7------10--10--10-----10--10--10-----10-----------------|
B|--8------8---8---8------12--12--12-----12--12--12-----10-----------------|
G|--7------7---7---7------12--12--12-----12--12--12-----11-----------------|
D|--9------9---9---9------12--12--12-----12--12--12-----12-----------------|
A|--x------x---x---x------x---x---x------x---x---x------x------------------|
E|-------------------------------------------------------------------------|


Version 2
[ Tab from: http://www.guitartabs.cc/tabs/d/dire_straits/wild_west_end_tab.html ]
    Dmaj
e|--5------5---5---5------5---5---5------5---5---5------5------------------|
B|--7------7---7---7------7---7---7------7---7---7------7------------------|
G|--7h9----9---9---9------7---7---7------7---7---7------7------------------|
D|--7------7---7---7------7---7---7------9---9---9------7------------------|
A|--5------5---5---5------5---5---5------5---5---5------5------------------|
E|--x------x---x---x------x---x---x------x---x---x------x------------------|

    Emin7                 Gmaj
e|--7------7---7---7------3---3---3------3---3---3------5------------------|
B|--8------8---8---8------3---3---3------3---3---3------7------------------|
G|--7------7---7---7------4---4---4------4---4---4------7------------------|
D|--9------9---9---9------5---5---5------5---5---5------7------------------|
A|--x------x---x---x------x---x---x------x---x---x------5------------------|
E|------------------------------------------------------x------------------|


Version 3

    Dmaj
e|--10-----10--10--10-----10--10--10-----10--10--10-----10-----------------|
B|--10-----10--10--10-----10--10--10-----10--10--10-----10-----------------|
G|--11-----11--11--11-----11--11--11-----11--11--11-----11-----------------|
D|--12h14--14--14--14-----12--12--12-----12--12--12-----12-----------------|
A|--x------x---x---x------x---x---x------14--14--14-----12-----------------|
E|---------------------------------------x---x---x------10-----------------|

    Emin7                 Gmaj
e|--7------7---7---7------10--10--10-----10--10--10-----10-----------------|
B|--8------8---8---8------12--12--12-----12--12--12-----10-----------------|
G|--7------7---7---7------12--12--12-----12--12--12-----11-----------------|
D|--9------9---9---9------12--12--12-----12--12--12-----12-----------------|
A|--x------x---x---x------x---x---x------x---x---x------x------------------|
E|-------------------------------------------------------------------------|



| /  slide up
| \  slide down
| h  hammer-on
| p  pull-off
| ~  vibrato
| +  harmonic
| x  Mute note
============================================================================