Dire Straits - Why Worry Chords & Tabs

 

Why Worry Chords & Tabs

Dire Straits Chords & Tabs

Version: 2 Type: Tab 2 ratings
1 star 2 stars 3 stars 4 stars 5 stars
comments

Why Worry Tab

   
Why Worry: Dire Straits (as by ptrlxc)
E                        B7                       E
|-4----------------------|-4--------2--4--5---4---|-4-----------4----------|
|-4-----------5----------|-4-----4----------------|-4-----5--------5-------|
|-------4--------4-----4-|----2-------------2--2--|----------4-------------|
|----6-----6--------6----|------------------------|----6-------------------|
|------------------------|-2----------------------|-------------------7----|
|-0----------------------|------------------------|-0----------------------|
 B7                       E                        A             F#/A#
|----------2--4--5---4---|-7-----------------4----|-5--------5-7-9-6-------|
|-4-----4----------------|-5-----------5--------7-|-5-----5-----------7----|
|-2--2-------------2--2--|-------4--------4-------|----------------------9-|
|------------------------|----6-----6-------------|----7-------------------|
|-2----------------------|------------------------|-0------------6---------|
|------------------------|-0----------------------|------------------------|
 B            C#m7        B
|-2-----2-----4-----4----|-------------7----------|
|-4--------4--5--------5-|-4-----4----------------|
|----4-----------6-------|----4-----4-------------|   (repeat)
|------------------------|------------------------|
|-2-----------4----------|-6----------------------|
|------------------------|------------------------|
 E                        A        B               E
|-----0------------------|-0---0---2---2----------|-----0------------------|
|-------0----------------|-2-----2-4-----4--------|-------0----------------|
|---1--------------------|---2-------4---------4--|---1--------------------|
|----------4--6--464-----|-------------------4----|----------4--6--464-----|
|----------2--------7--6-|-0-------2-------6------|----------2--------7--6-|
|-0----------------------|------------------------|-0----------------------|
 A   B A/C# B             E                        A        B
|------------------------|-----0------------------|-0---0---2---2----------|
|-2--4--5---4------------|-------0----------------|-2-----2-4-----4--------|
|-2--4--6---4---------4--|---1--------------------|---2-------4---------4--|
|-------------------4----|----------4--6--464-----|-------------------4----|
|-0--2--4---2-----6------|----------2--------7--6-|-0-------2-------6------|
|------------------------|-0----------------------|------------------------|
 E                        A   B A/C# B             A   B A/C# B
|-----0------------------|------------------------|------------------------|
|-------0----------------|-2--4--5---4------------|-2--4--5---4------------|
|---1--------------------|-2--4--6---4------------|-2--4--6---4------------|
|----------4--6--464-----|------------------------|------------------------|
|----------2--------7--6-|-0--2--4---2------------|-0--2--4---2------------|
|-0----------------------|------------------------|------------------------|
 A   B A/C# B_______________________ Bno3rd__________
|------------------------|------------------------|---12-11-------9--------|
|-2--4--5---4------------|------------------------|---------12-10---12---79|
|-2--4--6---4------------|------------------------|-------------9----9-----|
|------------------------|------------------------|------------------------|
|-0--2--4---2------------|-------------9----------|------------------------|
|------------------------|-------------7----------|------------------------|

|------------------------|
|10----------------------|
|----9--8--------6--4----|  (start at beginning: singing the words)
|----------9--7--------4-|
|------------------------|
|------------------------|

[ Tab from: http://www.guitartabs.cc/tabs/d/dire_straits/why_worry_tab_ver_2.html ]
Comments