Dire Straits - Tunnel Of Love Chords & Tabs

 

Tunnel Of Love Chords & Tabs

Dire Straits Chords & Tabs

Version: 3 Type: Tab 0 ratings
1 star 2 stars 3 stars 4 stars 5 stars
comments

Tunnel Of Love Tab

Tunnel Of Love
by Dire Straits


Making Movies and other albums


tabbed by Josh Clark (callingelvis@hotmail.co.uk)


E------------|----|------------|------|
B--10-11-10--|----|------------|------|
G------------|----|--12-12-12--|--10--|
D------------|----|------------|------|
A------------|----|------------|------|
E------------|----|------------|------|


E------------------|---------------|------------|
B--10-11-10--------|-----10-13-10--|--11--------|
G-----------12-10--|--12-----------|-----10-----|
D------------------|---------------|--------12--|
A------------------|---------------|------------|
E------------------|---------------|------------|


E---------|---------------|----|-----------|------------------------|
B---------|--10-10-11-10--|----|-----------|--10-11-10--------------|
G--10-12--|---------------|----|--12BB1|2--|-----------10-12----10--|
D---------|---------------|----|-----------|-----------------12-----|
A---------|---------------|----|-----------|------------------------|
E---------|---------------|----|-----------|------------------------|


E------------------------|------------|------------|---------------|
B--------10-11-10--------|--10-13-10--|--11--------|--10-----------|
G--12-12----------12-10--|------------|-----10-----|-----12-10-12--|
D------------------------|------------|--------12--|---------------|
A------------------------|------------|------------|---------------|
E------------------------|------------|------------|---------------|


E------|------------------------|--------|------------------|
B--10--|--13-10-13-10-----------|--13BB--|--13-10-11-10-----|
G------|--12-10-10-10-10-12-10--|--------|--------------10--|
D------|------------------------|--------|------------------|
A------|------------------------|--------|------------------|
E------|------------------------|--------|------------------|


E------------------|--10--------|------------|--------------------|
B------------------|-----13-----|------------|---------10-----10--|
G--12-12-12-10-12--|------------|------------|--10-12B----12B-----|
D------------------|--------10--|--10-12-12--|--------------------|
A------------------|------------|------------|--------------------|
E------------------|------------|------------|--------------------|


E--------------|-----------------------|-------------------|
B------13------|--13-----13------------|-------------------|
G--12B----12B--|-----12B----12B-10-12--|--12B-12B------10--|
D--------------|-----------------------|-------------9-----|
A--------------|-----------------------|----------12-------|
E--------------|-----------------------|-------------------|


E-------------------------------------|---------------|
B-------------------------------------|---------------|
G--12-10-12-10-9/10-9-10-9/7-9-7-9-7--|--5-7-5-7-5-7--|
D-------------------------------------|---------------|
A-------------------------------------|---------------|
E-------------------------------------|---------------|


E---------------|----6-8-8/10-10-----|--10----8---8---------|
B--5-6-5-6------|--------------------|----------------------|
G----------5-5--|--7-----8/10----10--|-----10/9-9-9-9-------|
D---------------|--------------------|----------------8/10--|
A---------------|--------------------|----------------------|
E---------------|--------------------|----------------------|

[ Tab from: http://www.guitartabs.cc/tabs/d/dire_straits/tunnel_of_love_tab_ver_3.html ]
E------------------------|------------------------------|
B--10-------10----10-10--|----------13-----13-----------|
G-----10-10-10-10-10-10--|--12B-12B----12B----12-10-10--|
D--10----10----10-10-10--|------------------------------|
A-----12-12--------------|------------------------------|
E------------------------|------------------------------|


E-------10-12B--|--12-10----10----10-----|---------|-------------|
B--13BB---------|--------13----13----13--|---------|-------------|
G---------------|------------------------|--12-12--|--12B-10-10--|
D---------------|------------------------|---------|-------------|
A---------------|------------------------|---------|-------------|
E---------------|------------------------|---------|-------------|


E--------13-------13-13--------|--13--------------------|
B--13/15----13/15-15----13-15--|-----15-13----15----13--|
G------------------------------|-----------14----14-----|
D------------------------------|------------------------|
A------------------------------|------------------------|
E------------------------------|------------------------|


E--10V---------|---------------------|--13-12---------|
B------13V-13--|-----13----13-15-----|--------15------|
G--------------|--14----14-------14--|-----------14V--|
D--------------|---------------------|----------------|
A--------------|---------------------|----------------|
E--------------|---------------------|----------------|


E--------17-15--|--15-12-15-12--------------|------------------|
B-----15--------|--------------13/15----13--|--------------13--|
G--15-----------|--------------------14-----|-----12----10-----|
D---------------|---------------------------|--14----10--------|
A---------------|---------------------------|------------------|
E---------------|---------------------------|------------------|


E--13-13-13-13-13-13--|--13-13--------||
B--13-15----13----13--|--13-15----13--||
G--------------15-----|--------12-----||
D---------------------|---------------||
A---------------------|---------------||
E---------------------|---------------||


E--13----13----17-13----13--|--18-13----13-17-13----13-15-13-15-13-12-13--|
B-----13----13-------13-----|--------13----------13-----------------------|
G---------------------------|---------------------------------------------|
D---------------------------|---------------------------------------------|
A---------------------------|---------------------------------------------|
E---------------------------|---------------------------------------------|


E--12--------------|--13----13----13----13-15--|
B-----15----13/15--|-----15-15-15----15--------|
G--------14--------|---------------------------|
D------------------|---------------------------|
A------------------|---------------------------|
E------------------|---------------------------|


E--15-12-13-15-12--|--13-15-15-15B-----|--13----13-13----13--|
B------------------|---------------15--|-----15-------15-----|
G------------------|-------------------|---------------------|
D------------------|-------------------|---------------------|
A------------------|-------------------|---------------------|
E------------------|-------------------|---------------------|


E--13----13-13-12--||
B-----15-------13--||
G--------------12--||
D------------------||
A------------------||
E------------------||

Repeat from the double lines until it fades, and make something up once its repeated
the first time. hope this is okay for you people, i guaruntee its correct trust me.
If you want any other dire straits songs, e-mail me.
Comments