Dire Straits - Tunnel Of Love Chords & Tabs

 

Tunnel Of Love Chords & Tabs

Dire Straits Chords & Tabs

Version: 1 Type: Tab 0 ratings
1 star 2 stars 3 stars 4 stars 5 stars
comments

Tunnel Of Love Tab

   
#----------------------------------PLEASE NOTE---------------------------------#
#This file is the author's own work and represents their interpretation of the #
#song. You may only use this file for private study, scholarship, or research. #
#------------------------------------------------------------------------------##
From: tzitron@loria.fr (Vincent Tzitron)

Here is my last version of this song, much more complete and with some
minor corrections :


TUNNEL OF LOVE (Dire Straits)
-----------------------------


 Dm  C  Dm                Bb                 Dm  C  Dm  Bb
--------10----10--------------------------------------------
-----------------13-10-----------------------10-------------
-----------------------12-10---10-9-10-12-10----------------
------------------------------------------------------------
------------------------------------------------------------
------------------------------------------------------------


------------------------------------------------------------
---------------------------------------3/5-5----------------
---------------------------------------2/5-5^6--------------
------------------------------------------------------------
------------------------------------------------------------
------------------------------------------------------------

                
------------------------------------------------------------
--------------------------------------5-5---5---------------
--------------------------------------5-5---5^6-------------
------------------------------------------------------------
------------------------------------------------------------
------------------------------------------------------------



------------------------------------------------------------
------------------------------3/5-5-------------------------
------------------------------2/5-5^6-----------------------
------------------------------------------------------------
------------------------------------------------------------
------------------------------------------------------------

 

------------------------------------------------------------
---------------------------------9(10)-9-7----7-------------
-------------------------------------------10---------------
------------------------------------------------------------
------------------------------------------------------------
------------------------------------------------------------


------------------------------------------------------------
-------------------------------5-7-5-7-5--------------------
-------------------------------6----------------------------
-------------------------------6----------------------------
------------------------------------------------------------
------------------------------------------------------------

                         
------------------------------------------------------------
-----------------------------------9/7---9/7---9------------
----------------------------------10/8--10/8--10------------
------------------------------------------------------------
------------------------------------------------------------
------------------------------------------------------------


------------------------------------------------------------
-----------------------------------------6---6---6^8-8------
-------------------------------------5-7---7----------------
------------------------------------------------------------
------------------------------------------------------------
------------------------------------------------------------

     
------------------------------------------------------------
----------------------------11(13)-11-10-11-10--------------
-----------------------------------------------12-10--------
------------------------------------------------------------
------------------------------------------------------------
------------------------------------------------------------

 
------------------------------------------------------------
------------------------------------------------------------
-------------------------------------------10---------------
----------------------------------------12----12-10-12------
------------------------------------------------------------
------------------------------------------------------------

           
On the tunnel of love....


           
------------------------------------------------------------
----------------------5-----5-------------------------------
----------------------6^5---5-------------------------------
------------------------------------------------------------
------------------------------------------------------------
------------------------------------------------------------
                                

------------------------------------------------------------
------------------------------------------------------------
------------------------------------10(12)-10-9-10-9-10(12)-
------------------------------------------------------------
------------------------------------------------------------
------------------------------------------------------------


---------------------------6--------------------------------
---------------------------6--------------------------------
---------------------------7--------------------------------
---------------------------8--------------------------------
------------------------------------------------------------
------------------------------------------------------------

   
-------------------------10-11-10---------------------------
----------------------------------13-11---------------------
------------------------------------------------------------
------------------------------------------------------------
------------------------------------------------------------
------------------------------------------------------------

   
------------------------------------------------------------
----------------------------13-11-10-11-10------------------
--------------------------------------------12-10-----------
------------------------------------------------------------
------------------------------------------------------------
------------------------------------------------------------

  
------------------------------------------------------------
------------------------------------------------------------
-------------------------------------------10---------------
----------------------------------------12----12-10-12------
------------------------------------------------------------
------------------------------------------------------------



            
------------------------------------------------------------
------------------------------------------------------------
------------------------------------------------------------
------------------------------------------------------------
----------------10------------------------------------------
------------------------------------------------------------

------------------------------------------------------------
------------------------------------------------------------
------------------------------------------------------------
-------------------8-10-8-----------------------------------
----------------10------------------------------------------
------------------------------------------------------------

   
------------------------------------------------------------
------------------------------------------------------------
--------------10-9-----------10-9---------------------------
------------------------------------------------------------
------------------------------------------------------------
------------------------------------------------------------

[ Tab from: http://www.guitartabs.cc/tabs/d/dire_straits/tunnel_of_love_tab.html ]
   
-----------------------------------------------------------------
-----------------------------------------------------------------
----------------------------------------------------------9^7^9--
-----------------------------------------------------------------
-----------------------------------------------------------------
-----------------------------------------------------------------


-------------------------------3----------------------------
-------------------------------3---3-3-5-5-3----------------
------------------------------------------------------------
------------------------------------------------------------
------------------------------------------------------------
------------------------------------------------------------

     

------------------------------------------------------------
-----------------------------------6------------------------
------------------------------------------------------------
-----------------------------7-5---7------------------------
---------------------------------8--------------------------
------------------------------------------------------------

              
------------------------------------------------5-----------
------------------------------------5^6---6-8-8-6-----------
------------------------------------------------------------
------------------------------------------------------------
------------------------------------------------------------
------------------------------------------------------------

                      
------------------------------------------------------------
----------------------------------6-5-----------------------
--------------------------------------5---------------------
----------------------------------------8-7-5-8-7-5-------5-
----------------------------------------------------8-7-8---
------------------------------------------------------------


------------------------------------------------------------
----------------------------11(13)-11-10--------------------
-----------------------------------------12-10--------------
------------------------------------------------------------
------------------------------------------------------------
------------------------------------------------------------

      
------------------------------------------------------------
------------------------------------------------------------
-------------------------------------------10---------------
----------------------------------------12----12-10-12------
------------------------------------------------------------
------------------------------------------------------------

       



FINAL SOLO :
----------

* Second guitar : plays chords from the bridge,
                  and then repeat [ F  C Dm  C  Bb ] till the end.

* Lead guitar :

---------------------------------------------------------------------
-10^11^10----------10-11-10--------------10-13-10-11--------------10-
------------12--------------12-10-12------------------------10-12----
------------14---------------------------------------12--------------
---------------------------------------------------------------------
---------------------------------------------------------------------

---------------------------------------------------------------------
-10^11^10---10(11)10---10-11-10---------------------10-11-10---------
----------------------------------10-12---10-12--------------12-10-12
---------------------------------------------------------------------
---------------------------------------------------------------------
---------------------------------------------------------------------

---------------------------------------------------------------------
-10-13-10-11-----------10----------10--------------------13(15)13----
-------------10-10--------12-10-12------12^10---12^10----------------
----------------12---------------------------------------------------
---------------------------------------------------------------------
---------------------------------------------------------------------

------------------------10-------------------------------------------
-10-11---------------------13---------------------------12--------12-
-------10-12-12^10^12-------------------------10-12(14)----12(14)----
------------------------------10-10-12-12----------------------------
---------------------------------------------------------------------
---------------------------------------------------------------------

-------------------------------------------------------------
-13----10-13----10-13-10--------------12---------------------
----12-------12----------12-10-12(14)------------------------
-------------------------------------------------------------
-------------------------------------------------------------
-------------------------------------------------------------

-------------------------------------------------------------
-------------------------------------------------------------
----9-10-12-10^12^10-9-9^10^9----10----10--------------------
-12---------------------------12----12----12-10--------------
-------------------------------------------------------------
-------------------------------------------------------------

--------------------------------------------10-10---10-------
--------------------------------------11-13------------13-13-
----------------9-10-9-10------------------------------------
-12-10-12-10-12-----------10-10-10-12------------------------
-------------------------------------------------------------
-------------------------------------------------------------

---------------------------------------10-13-12-10----10----10----------
-11-10---10-10----------(15)13(15)-----------------13----13----13-------
---------------12-10-10-------------------------------------------12-12-
------------------------------------------------------------------------
------------------------------------------------------------------------
------------------------------------------------------------------------

------------------10-13----10-13----10-13-10-------10-------10-----------
---------------13-------13-------13----------13-10----10-13--------10^13-
-(14)12-10---------------------------------------------------------------
-------------------------------------------------------------------------
-------------------------------------------------------------------------
-------------------------------------------------------------------------

----10-------10--------13-12-10-----------17----------------------
-10----10-13--------10----------10-----------20-20----------------
---------------------------------------------------17^19^17----17-
---------------------------------------19-------------------19----
------------------------------------------------------------------
------------------------------------------------------------------

--------------------13-13-13----10--------------------------------
----10------10-13------------11-------13--------------------------
-10--------------------------------10-----------------------------
-------10---------------------------------------------------------
------------------------------------------------------------------
------------------------------------------------------------------

-------------17-18-17-----------------------------------------------
----18----18----------20-18^20^18-17-----------------18----18-20-20-
-17----17----------------------------19-----------19----19----------
----------------------------------------19-19-----------------------
--------------------------------------------------------------------
--------------------------------------------------------------------

-------------------17--------------------------------------
-17-18-20-17-18-20-------18------18-18------18-18----------
----------------------19------19---------19---------19-----
-----------------------------------------------------------
-----------------------------------------------------------
-----------------------------------------------------------

-|-------------|-------------------------------------|-------------
-|-------------|-11-10----11---11-10-----------------|-------------
-|--keyboards--|-------12------------12-10-12-12-10--|--keyboards--
-|-------------|-------------------------------------|-------------
-|-------------|-------------------------------------|-------------
-|-------------|-------------------------------------|-------------
Comments