Dire Straits - Sultans Of Swing Chords & Tabs

 

Sultans Of Swing Chords & Tabs

Dire Straits Chords & Tabs

Version: 5 Type: Tab 0 ratings
1 star 2 stars 3 stars 4 stars 5 stars
comments

Sultans Of Swing Tab

 This is an amazing solo so have fun with it. 
  Standard tuning

 |---------------------------------------------------|
 |---------------------------------------------------|
 |--12bu14--14bd12-10-12-10------12bu14bd12----------|
 |--------------------------12-----------------------|
 |---------------------------------------------------|
 |---------------------------------------------------| 

 |---------------------------------------------------|
 |---------------------------------------------------|
 |---9h12p9--7h9p7--5h7p5----------------------------|
 |-------------------------5h7p5---------------------|
 |--------------------------------5h7p5-3------------|
 |---------------------------------------------------|

 |-----------------------|---------------------------|
 |--10-10-10p8-6h8p6-----|------10p8-----10p8--------|
 |-------------------7---|-----------9-------9-------|
 |-----------------------|---------------------------|
 |-----------------------|---------------------------|
 |-----------------------|---------------------------|
                            This riffs played 3 times
[ Tab from: http://www.guitartabs.cc/tabs/d/dire_straits/sultans_of_swing_tab_ver_5.html ]
 |-----------10--------------------------------------|
 |--------10----13p10----10--------------------10----|
 |-12bu14-------------12----12p10-----------10----12-|
 |--------------------------------12--10h12----------|
 |---------------------------------------------------|
 |---------------------------------------------------|
 
       mu         mu
 |--------------------------------12---------10------|
 |--------10--------11-----11bu13-----13bd11---------|
 |------9---------9----------------------------------|
 |---10--------10------------------------------------|
 |---------------------------------------------------|
 |---------------------------------------------------|

 |---13p10--------13p10-----------15p12-----------|
 |---------10-----------11--------------12--------| 
 |------------x4-----------x4--------------x8-----|  
 |------------------------------------------------|
 |------------------------------------------------|
 |------------------------------------------------|
                                     
 |---15bu17-17bd15---13--15p13---15bu17bd15-----------------------|
 |----------------------------15------------14h17p14--------------|
 |---------------------------------------------------13h16p13-----|
 |------------------------------------------------------------16--|
 |----------------------------------------------------------------|
 |----------------------------------------------------------------|
Comments