Dire Straits - Sultans Of Swing Chords & Tabs

 

Sultans Of Swing Chords & Tabs

Dire Straits Chords & Tabs

Version: 3 Type: Tab 5 ratings
1 star 2 stars 3 stars 4 stars 5 stars
comments

Sultans Of Swing Tab

   
Dire Straights – Sultans of Swing
Tabbed by Nick Carson 23/6/02
Email mr_telecaster@hotmail.com

/=slide up
\=slide down
h=hammer on
p=pull off
b=bend
~=vibrato
>=hold bend

Intro:

E|------------------------------------5-8-5----------------------------|
B|-------------------------------6----------6~-5h6p5-------------------|
G|--5/7-77-7-7-555h7-7-----7~------7~----------------7~~---------------|
D|---------------------5/7-----5---------------------------------------|
A|---------------------------------------------------------------------|
E|---------------------------------------------------------------------|

Part of the verse:
[ Tab from: http://www.guitartabs.cc/tabs/d/dire_straits/sultans_of_swing_tab_ver_3.html ]
E|--------------------------------------------------------------5\3~~--|
B|----------------------88------------------------65------------6\5~~--|
G|--7-77-75-533-2~--7b9>>>>9b7-777--------7---7------7~—3335-5~--------|
D|------------------------------------5/7---7---7----------------------|
A|---------------------------------------------------------------------|
E|---------------------------------------------------------------------|

Chorus:

E|---------------------------------------------------5\3~~-------------|
B|------------6-65-5~~-----------------------6-65-5~-6\5~~-------------|
G|--7~-75-3~~-------------55---5-7~~--75-3~~---------------------------|
D|--------------------5/7----7-----------------------------------------|
A|---------------------------------------------------------------------|
E|---------------------------------------------------------------------|
Comments