Dire Straits - Sultans Of Swing Chords & Tabs

 

Dire Straits Chords & Tabs

Version: 1 Type: Tab 1 rating
1 star 2 stars 3 stars 4 stars 5 stars
comments

Sultans Of Swing Tab

Sultans of Swing   Dire Straits

Great song, brilliant solos. 
I've left blank bars where there is no lead guitar (while Mark is singing).

My Rig:
Squire Telecaster
Marshall 50 watt amp
Morley wah wah

My Favourite Bands:
Primus
Clutch
No Doubt

My Favourite guitar websites:
http://www.tabclawer.com    - good tab site
http://www.nodoubt.com   - no doubt's official site
http://www.guitarandbass.co.uk   - brilliant guitar lesson site
                                                            


E||------------------|------------------|------------------|
B||------------------|------------------|------------------|
G||------------------|------------------|------------------|
D||------------------|------------------|------------------|
A||------------------|------------------|------------------|
E||------------------|------------------|------------------|


                                                                  
----------------------|--------------------|---------------------|
----------------------|--------------------|---------------------|
----------5-----5--x--|--5/-7--------------|------------------7~-|
----------5--7--5--x--|--5/-7--------------|------------5/-7-----|
----------------------|--------------------|---------------------|
----------------------|--------------------|---------------------|


                                               
----------------------|------------5--8----5--|
----------------------|----------6------------|
---------------10--7--|--------7--------------|
------------7---------|-----------------------|
----------------------|-----------------------|
----------------------|-----------------------|


                                                                
------------------------|------------------|-------------------|
--6~-----6--5h-6--5-----|------------------|-------------------|
---------------------7~-|------------------|----------------5--|
------------------------|------------------|-------------------|
------------------------|------------------|-------------------|
------------------------|------------------|-------------------|


                                                                  
----------------------|-------------------|----------------------|
----5---------3-------|-------------------|----------------------|
---------3---------2--|----------------4--|--4r-------4r---2--4/-|
----------------------|-------------------|----------------------|
----------------------|-------------------|----------------------|
----------------------|-------------------|----------------------|


                                                                  
---------------------|--------------------|--------------5-------|
---------------------|--------------------|----------------------|
--7------7--------5--|--------3--------2--|------2/---6-------6--|
---------------------|--------------------|----------------------|
---------------------|--------------------|----------------------|
---------------------|--------------------|----------------------|


                                                         
--5~------5----------------|----------------------------|
---------------x--x--10-10-|--10----x--10----10--x--10--|
-------6-------x--x--10-10-|--10----x--10----10--x--10--|
---------------------10-10-|--10----x--10----10--x--10--|
---------------------8--8--|--8--------8-----8------8---|
---------------------------|----------------------------|


                                                                      
------------------------|--------------------|-----------------------|
------x--10----10--x----|----------5------5--|------6--5--6--5----3--|
------x--10----10--x----|----------5------5--|------5--5--5--5----3--|
------x--10----10--x----|----------5------5--|------7--5--7--5----3--|
---------8-----8--------|--------------------|-----------------------|
------------------------|--------------------|-----------------------|


                                                                
------------------|------------------|-------------------------|
------------------|------------------|-------------------------|
------------------|------------------|------------7-----10--7h-|
------------------|------------------|------5/-7-----7---------|
------------------|------------------|-------------------------|
------------------|------------------|-------------------------|


                                                                    
---------------------|----------------------|----------------------|
-------------6-------|----------------------|----------------------|
--------7----7----7--|--7/-9----------------|-----------5~---------|
--------8---------8--|--8/-10---------------|-----5h-7-------------|
---------------------|-------------------5/-|--7-------------------|
---------------------|----------------------|----------------------|


                                                                    
---------------------|--------------------|------------5~----5~----|
--6------6--------5--|--------3--------2--|------------------------|
--7------7--------5--|--------3--------2--|------2/-6-----6~----6~-|
--7------7--------5--|--------3--------2--|------------------------|
--5------5--------3--|--------1-----------|------------------------|
---------------------|--------------------|------------------------|


                                                               
--5--6----5----3-------|--1~---------------|------------------|
-----------------------|-------------------|------------------|
-----6----6----4----2--|-------------------|------------------|
-----------------------|-------------------|------------------|
-----------------------|-------------------|------------------|
-----------------------|-------------------|------------------|


                                                    
----------10h-9---------|--------------------------|
-----------------10-----|--------------------------|
---------------------9/-|--7/-6--------------------|
------------------------|--------7--5/-4-----------|
------------------------|-----------------7/-5/-3--|
------------------------|--------------------------|


                                                           
------------------|------------------|--------------------|
------------------|------------------|----------5------5--|
------------------|------------------|----------5------5--|
------------------|------------------|----------5------5--|
------------------|------------------|--------------------|
------------------|------------------|--------------------|


                                                             
----------------------|------------------|------------------|
------6----6--5----3--|------------------|------------------|
------5----5--5----3--|------------------|------------------|
------7----7--5----3--|------------------|------------------|
----------------------|------------------|------------------|
----------------------|------------------|------------------|


                                                                   
----------10--8--------|--------------------|---------------------|
-------------------10~-|-------------6------|---------------------|
----------10--9----10~-|--------7----7------|--7/-9---------------|
-----------------------|--------8-----------|--8/-10--------------|
-----------------------|--------------------|---------------------|
-----------------------|--------------------|---------------------|


                                                               
---------------------|---------------------|------------------|
-------------6-------|---------------------|------------------|
--------7----7----x--|--7/-9---------------|------------------|
--------8---------x--|--8/-10--------------|------------------|
---------------------|---------------------|------------------|
---------------------|---------------------|------------------|


                                                                   
---------------------|-------------------|------------------------|
----------6--5----3--|--------------6----|--6h-5----5-------------|
----------7--5----3--|--------------5----|--5-------5-------6/10--|
----------7--5----3--|--------------7----|--7h-5----5-------------|
---------------------|-------------------|------------------------|
---------------------|-------------------|------------------------|


                                                                   
------------------------|---------------------|-------------------|
--10--8-8-x--8~---------|----------6--5----3--|--------------6----|
--10--9-9-x--9~---------|----------7--5----3--|--------------5----|
------------------------|----------7--5----3--|--------------7----|
------------------------|---------------------|-------------------|
------------------------|---------------------|-------------------|


                                                                 
----------------------|----------------------|------------------|
--6h-5----5-----------|----------------------|------------------|
--5-------5-----------|-----------5~---------|------------------|
--7h-5----5-----------|-----5--7-------------|------------------|
--------------------5/|--7-------------------|------------------|
----------------------|----------------------|------------------|


                                                               
------------------|-------------------|--9------7----9----10--|
------------------|-------------------|--8------8----8----10--|
------------------|--------------x----|-------------------10--|
------------------|--------------x----|-----------------------|
------------------|-------------------|-----------------------|
------------------|-------------------|-----------------------|


                                                                  
--10----------------|------------------|--------5----------9-----|
--10----------------|------------------|-----5-----5--8b------8r-|
--10----------------|------------------|--7b---------------------|
--12----------------|------------------|-------------------------|
--------------------|------------------|-------------------------|
--------------------|------------------|-------------------------|


                                                                
----7-----------------|-------------------|--------------------|
---------8r---8r---8b-|--------------8r---|--6-----------------|
----------------------|-------------------|---------5----------|
----------------------|-------------------|--------------------|
----------------------|-------------------|--------------------|
----------------------|-------------------|--------------------|


                                                                     
------------------|-----------------------------|-------------------|
------------------|--------8--8/-6----6----6----|--6~---------------|
------------------|--7/-9-----9/-7----7----7----|--7~---------------|
------------------|-------------------8----8----|--8~---------------|
------------------|-----------------------------|-------------------|
------------------|-----------------------------|-------------------|


                                                                    
------------------|-------------10--8--------|---------------------|
------------------|----------------------10~-|-------------6-------|
------------------|-----------------9----10~-|--------7----7----x--|
------------------|-------9/10---------------|--------8---------x--|
------------------|--------------------------|---------------------|
------------------|--------------------------|---------------------|


                                                     
-------------------------|--------------------------|
------------8------------|--------------------------|
--7/-9---9---------------|--------------5-----5-----|
--8/-10--------------10--|--------5h-7-----7-----7--|
-------------------------|---5/7--------------------|
-------------------------|--------------------------|


                                                           
--------------------|------------------|------------------|
--------------------|------------------|------------------|
--5/-7~-------------|------------------|------------------|
--------------------|------------------|------------------|
--------------------|------------------|------------------|
--------------------|------------------|------------------|


                                                             
---------------------|-------------------|------------------|
----8r-----8r---8r---|-------------------|------------------|
----7r-----7r---7r---|--7----------------|------------------|
---------------------|-------------------|------------------|
---------------------|-------------------|------------------|
---------------------|-------------------|------------------|


                                                                     
---7/9----9--------------|-----------5~---------|--8----------------|
-------------10----------|----------------------|--8b---------------|
-----------------9--9~---|--7--6----------------|-------------------|
-------------------------|--------7-------------|-------------------|
-------------------------|----------------------|-------------------|
-------------------------|----------------------|-------------------|


                                                               
------------------|--------------------|----------------------|
------------------|----------5------5--|------6----6--5----3--|
------------------|----------5------5--|------5----5--5----3--|
------------------|----------5------5--|------7----7--5----3--|
------------------|--------------------|----------------------|
------------------|--------------------|----------------------|


                                                                  
------------------|------------------|---------------------------|
------------------|------------------|---------------------------|
------------------|------------------|--------7-----10--9h-8--7--|
------------------|------------------|--5/-7-----7---------------|
------------------|------------------|---------------------------|
------------------|------------------|---------------------------|


                                                                 
---------------------|--------------------|---------------------|
--------3----3----x--|--3/-5--------------|-------------6----x--|
--------3----3----x--|--3/-5--------------|--------7----7----x--|
---------------------|--3/-5--------------|--------8------------|
---------------------|--------------------|---------------------|
---------------------|--------------------|---------------------|


                                                               
---------------------|------------------|---------------------|
--6/-8---------------|------------------|----------6--5----3--|
--7/-9---------------|------------------|----------7--5----3--|
--8/-10--------------|------------------|----------7--5----3--|
---------------------|------------------|---------------------|
---------------------|------------------|---------------------|


                                                                   
-------------------|----------------------|-----------------------|
--------------6----|--6h-5----5------5/---|--10--8-----8~---------|
--------------5----|--5-------5------5/---|--10--9--x--9~---------|
--------------7----|--7h-5----5-----------|-----------------------|
-------------------|----------------------|-----------------------|
-------------------|----------------------|-----------------------|


                                                                 
---------------------|-------------------|----------------------|
----------6--5----3--|--------------6----|--6--5----5-----------|
----------5--5----3--|--------------5----|--5--5----5-----------|
----------7--5----3--|--------------7----|--7--5----5-----------|
---------------------|-------------------|--------------------5-|
---------------------|-------------------|----------------------|


                                                                      
----------------------|------5-------5--------|----------------------|
----------------------|------6-------6-----5--|----5--x--3------x----|
-----------5~---------|---------7-------7--5--|----5--x--3------x----|
-----5h-7-------------|--------------------5--|-------x--3------x----|
--7-------------------|-----------------------|----------------------|
----------------------|-----------------------|----------------------|

[ Tab from: http://www.guitartabs.cc/tabs/d/dire_straits/sultans_of_swing_tab.html ]
                                                  
--------------------|--12------------------------|
------12b-----------|------12r-------10----------|
--------------------|---------------------12/14--|
--------------------|----------------------------|
--------------------|----------------------------|
--------------------|----------------------------|


                                                                 
--13----------------|------------------|--12h-9-----------------|
--------------------|------------------|---------10-------------|
--------------------|------------------|-------------9~---------|
--------------------|------------------|------------------------|
--------------------|------------------|------------------------|
--------------------|------------------|------------------------|


                                                              
----------5------8----|--8----------------|------------------|
-----------------8r---|--8b---------------|------------------|
--7--6----------------|-------------------|------------------|
----------------------|-------------------|------------------|
----------------------|-------------------|------------------|
----------------------|-------------------|------------------|


                                                                     
------------------|-----------------------------|-------------------|
------------------|--------8--8/-6----6----6----|--6~---------------|
------------------|--7/-9-----9/-7----7----7----|--7~---------------|
------------------|-------------------8----8----|--8~---------------|
------------------|-----------------------------|-------------------|
------------------|-----------------------------|-------------------|


                                                                    
------------------|--------------------------|---------------------|
------------------|--------------------------|-------------6-------|
------------------|----x--------7-----10--7--|--------7----7----7--|
------------------|-------5h-7-----7---------|--------8---------8--|
------------------|--------------------------|---------------------|
------------------|--------------------------|---------------------|


                                                                      
-------------------------|---------------------|---------------------|
--6/-8---8---8-----------|-------------6-------|--6/-8---------------|
--7/-9---9---9-----------|--------7----7----7--|--7/-9---------------|
--8/-10--10--10----------|--------8---------8--|--8/-10--------------|
-------------------------|---------------------|---------------------|
-------------------------|---------------------|---------------------|


                                                             
------------------|---------------------|-------------------|
------------------|----------6--5----3--|--------------6----|
------------------|----------7--5----3--|--------------5----|
------------------|----------7--5----3--|--------------7----|
------------------|---------------------|-------------------|
------------------|---------------------|-------------------|


                                                                    
----------------------|----------------------|---------------------|
--6h-5----5------5/---|--10--8----8~---------|----------6--5----3--|
--5-------5------5/---|--10--9----9~---------|----------7--5----3--|
--7h-5----5-----------|----------------------|----------7--5----3--|
----------------------|----------------------|---------------------|
----------------------|----------------------|---------------------|


                                                                  
-------------------|----------------------|----------------------|
--------------6----|--6h-5----5-----------|----------------------|
--------------5----|--5-------5-----------|-----------5~---------|
--------------7----|--7h-5----5-----------|-----5h-7-------------|
-------------------|--------------------5/|--7-------------------|
-------------------|----------------------|----------------------|


                                                           
----------------------------|-----------------------------|
----------------------------|-----------------------------|
--12b-----------12b---12b---|--12r-----10h12h10~-----9h10h|
----------------------------|-----------------------------|
----------------------------|-----------------------------|
----------------------------|-----------------------------|


                                               
----------------------|-----5----9----12r-----|
----------------------|--5--------------------|
--9----------x-----6--|-----------------------|
----------------7-----|-----------------------|
----------------------|-----------------------|
----------------------|-----------------------|


                                                             
--10----------------------------|---------------------------|
--------10------------------10--|--13~-----11h13h11~-----x--|
--------------10----------------|---------------------------|
--------------------12----------|---------------------------|
--------------------------------|---------------------------|
--------------------------------|---------------------------|


                                                
-------------------------|---------------------|
--10~----------12--------|--9h-10--------------|
------------x------x--x--|---------------------|
-------------------------|---------------------|
-------------------------|---------------------|
-------------------------|---------------------|


                                                        
------------------13----------|---------------------10/|
--------13------------13------|------------------------|
--12b-------12b-----------12r-|----10~---10~-----------|
------------------------------|------------------------|
------------------------------|------------------------|
------------------------------|------------------------|


                                                            
--13----12------------------------|------------------------|
--------------13------------------|--13--13~---13----------|
--------------------12--14h---12--|------------------------|
----------------------------------|------------------------|
----------------------------------|------------------------|
----------------------------------|------------------------|


                                                  
--------------------------|----------------------|
--13b-------13r---11--13b-|----13r-----------10--|
--------------------------|----------------------|
--------------------------|----------------------|
--------------------------|----------------------|
--------------------------|----------------------|


                                                             
--13h-10------10----------------|---------------------------|
----------10------13b---10--10--|------------------3--6--3--|
--------------------------------|--12--10/------3-----------|
--------------------------------|------------3--------------|
--------------------------------|---------------------------|
--------------------------------|---------------------------|


                                                    
-------------------------|-------------------------|
--------5--6/-8--6----5/-|--6/-8----------3--6--3--|
------5------------------|-------------3-----------|
----5--------------------|----------3--------------|
-------------------------|-------------------------|
-------------------------|-------------------------|


                                                                      
----------------------|------------------------|---------------------|
----------------------|-------8----------------|----------6--5----3--|
---------5----7----5--|--7b------7r---5--7~-7~-|----------7--5----3--|
------5---------------|------------------------|----------7--5----3--|
----------------------|------------------------|---------------------|
----------------------|------------------------|---------------------|


                                                                  
-------------------|----------------------|----------------------|
--------------6----|--6h-5----5------5/---|--10----8--8----------|
--------------5----|--5-------5------5/---|--10----9--9----------|
--------------7----|--7h-5----5-----------|----------------------|
-------------------|----------------------|----------------------|
-------------------|----------------------|----------------------|


                                                                 
---------------------|-------------------|----------------------|
----------6--5----3--|--------------6----|--6h-5----5-----------|
----------7--5----3--|--------------5----|--5-------5-----------|
----------7--5----3--|--------------7----|--7h-5----5-----------|
---------------------|-------------------|--------------------5/|
---------------------|-------------------|----------------------|


                                                                    
----------------------|---------------------|----------------------|
----------------------|------------------5--|----5----3------3--2--|
-----------5~---------|----------5--7----5--|----5----3------3--2--|
-----5h-7-------------|------------------5--|---------3------3--2--|
--7-------------------|---------------------|----------------------|
----------------------|---------------------|----------------------|


                                                      
------------5-----7-----|-----9------9-----12/---10--|
------------------------|----------------------------|
------2/-6-----6-----7/-|--9-------9-9/12--12/---10--|
------------------------|----------------------------|
------------------------|----------------------------|
------------------------|----------------------------|


                                                              
--10~---------------|------------------|--------9-9-9--------|
--------------------|------------------|--------8-8-8--------|
--10~---------------|------------------|--------9-9-9--------|
--------------------|------------------|---------------------|
--------------------|------------------|---------------------|
--------------------|------------------|---------------------|


                                                         
------------------|------------------|------------------|
------------------|------------------|------------------|
------------------|------------------|------------------|
------------------|------------------|------------------|
------------------|------------------|------------------|
------------------|------------------|------------------|


                                                              
------------------|----------------------|-------------------|
------------------|--------8-------------|----------6--------|
------------------|--7/-9-----9----------|----------7--------|
------------------|----------------------|----------8--------|
------------------|----------------------|-------------------|
------------------|----------------------|-------------------|


                                                                      
------------------|----------------------------|---------------------|
------------------|----------------------------|--------3----3----x--|
------------------|--------7-----10-----10--7--|--------3----3----x--|
------------------|----5/7----7------7---------|--------3----3----x--|
------------------|----------------------------|---------------------|
------------------|----------------------------|---------------------|


                                                                    
-----------------------|---------------------|---------------------|
--3/-5--5--5--------5--|-------------6----x--|---------------------|
--3/-5--5--5--------5--|--------7----7----x--|--7/-9---------------|
--3/-5-----5--------5--|--------8------------|--8/-10--------------|
-----------------------|---------------------|---------------------|
-----------------------|---------------------|---------------------|


                                                             
------------------|---------------------|-------------------|
------------------|----------6--5----3--|--------------6----|
------------------|----------7--5----3--|--------------5----|
------------------|----------7--5----3--|--------------7----|
------------------|---------------------|-------------------|
------------------|---------------------|-------------------|


                                                                    
----------------------|----------------------|---------------------|
--6h-5----5------5/---|--10--8----8~---------|----------6--5----3--|
--5-------5------5/---|--10--9----9~---------|----------7--5----3--|
--7h-5----5-----------|----------------------|----------7--5----3--|
----------------------|----------------------|---------------------|
----------------------|----------------------|---------------------|


                                                                    
-------------------|----------------------|------------------------|
--------------6----|--6h-5----5-----------|------------------------|
--------------5----|--5-------5-----------|-----------5~-----x--x--|
--------------7----|--7h-5----5-----------|-----5h-7---------------|
-------------------|--------------------5/|--7---------------------|
-------------------|----------------------|------------------------|


                                                      
--------------------------|--------------------------|
--------------------------|--------------------------|
--12b-------12----10--12--|--10------------------12r-|
--------------------------|------12~---12~-----------|
--------------------------|--------------------------|
--------------------------|--------------------------|


                                                        
-----------------------------|-------------------------|
-----------------------------|-------------------------|
------12--9h12h9--7h9h7--5h7h|--5----------------------|
-----------------------------|-----5h7h5---------------|
-----------------------------|------------5h7h5--------|
-----------------------------|-------------------------|


                                                    
-----------------------------|---------------------|
--------8-8-10h8----8--------|---------------------|
-----------------10---10--7~-|--------7-------7/9--|
-----------------------------|---------------------|
-----------------------------|---------------------|
-----------------------------|---------------------|


                                       
-----------8--------8--------8--------|
--8h10h8-----10h8-----10h8-----10h8---|
---------9--------9--------9--------9-|
--------------------------------------|
--------------------------------------|
--------------------------------------|


                                
--8--------8-------------------|
----10h8-----10h8--------------|
---------9--------x-x--x--x----|
-------------------------------|
-------------------------------|
-------------------------------|


                                                 
---------10-------------------------------------|
------10----13h10----10----------------------10-|
--12b-------------12----12h10----10-------10----|
------------------------------12----10h12-------|
------------------------------------------------|
------------------------------------------------|


                                                       
------------------------|-----------------------------|
------------------------|--10~------------11----x--x--|
--12~-------------10-12-|--------x--10-12-------x--x--|
------------------------|-----------------------------|
------------------------|-----------------------------|
------------------------|-----------------------------|


                             
--------12--------10--------|
--11b-------11r-------------|
----------------------x--x--|
----------------------------|
----------------------------|
----------------------------|


                                                   
--13h10----10-13h10----10-13h10----10-13h10----10-|
--------10----------10----------10----------10----|
--------------------------------------------------|
--------------------------------------------------|
--------------------------------------------------|
--------------------------------------------------|


                                                  
--13h10----10-13h10----10-13h10----10-13-x----12-|
--------11----------11----------11---------13----|
-------------------------------------------------|
-------------------------------------------------|
-------------------------------------------------|
-------------------------------------------------|


                                                   
















Comments