Dire Straits - Sultans Of Swing Chords & Tabs

 

Sultans Of Swing Chords & Tabs

Dire Straits Chords & Tabs

Version: 1 Type: Bass Tab 2 ratings
1 star 2 stars 3 stars 4 stars 5 stars
comments

Sultans Of Swing Bass Tab

Band: DIRE STRAITS
Song: Sultans of Swing

this is actually Johari Taylor's version, but i have made some corrections.

Intro:         ____________    _________
	      |1,3,4          |2
|-------------|---------------|------------|   
|-------------|---------------|------------|
|-5---5-5---5-|-5---5-3-0-3-0-|-5---5-5-3--|
|-------------|---------------|------------|
  
Verse:
|--------------|-------------|-------------|--------------|
|*-------------|-------------|-------------|-------------*|
|*-5---5-5---5-|-3---3-1---1-|-0---0-0---0-|-0---0-0---0-*|(x2)
|--------------|-------------|-------------|--------------|
   
|---------------|---------------|-------------|-------------|
|-3---3---------|-3---3---------|-------------|-------------|
|---------1-3-1-|---------1-3-1-|-3---3-3---1-|-3---3-3---1-|
|---------------|(1)-(1)--------|---------3---|---------3---|
  
[ Tab from: http://www.guitartabs.cc/tabs/d/dire_straits/sultans_of_swing_btab.html ]
|-------------|-------------|--------------|-------------|
|-------------|-------------|--------------|-------------| 
|-1---1-1-----|-1---1-1-----|-5---5---3--5-|-1-1-1-3---3-|
|---------3-1-|---------3-1-|-------5------|-------------|
  
	       ______    _________________________	
	      |1.       |2.	
|-------------|---------|-------------|-------------|
|-------------|---------|-------------|-------------|
|-3---3-3---3-|-2-0-----|-1-1-1-3---3-|-3---3-3---3-|
|-------------|-----3-1-|-------------|-------------|
  

Chorus:
|-------------|-------------|-----------|-------------|
|-------------|-------------|-----------|-------------|
|-5--55-3---1-|----1----0-2-|-3-3-------|-3-3------3/-|
|-------------|-----1-3-----|-------1-3-|-------------|
  

2nd Solo:
|-------------|-------------|-------------|-------------|
|-------------|-------------|-------------|-------------|
|-5---5-5---5-|-1---1-1---1-|-3---3-3-----|-3---3-3---3-|
|-------------|-------------|-----------3-|-------------|
  

Chorus Variation:
|---------------|-----------|-------------|-------------|
|--------7-5-2--|-----------|-------------|-------------|
|-5---5-------1-|-1----0-2--|-3---3----3--|-3---------3-|
|---------------|--1-3------|-----------3-|-------------|
  

SONG STRUCTURE:
Intro(x4)
Verse(x2)
Chorus(x2)
Verse(x2)
Chorus(x2)
Verse(x1-2nd time ending)
Chorus(x2)
Verse(1st solo)(x1-2nd time ending)
Chorus(x2)
Verse(x1)
Chorus(x2)
2nd Solo(x1)
Chorus(x2)
Chorus Variations(x3)(Fade Out)


Corrections by:  Ryan Addinsall (raddinsall@mauimail.com)

Comments