Dire Straits - Sultan Of Swing Chords & Tabs

 

Sultan Of Swing Chords & Tabs

Dire Straits Chords & Tabs

Version: 2 Type: Tab 0 ratings
1 star 2 stars 3 stars 4 stars 5 stars
comments

Sultan Of Swing Tab

   
Dire Straits - Sultans of Swing 
===============================

[Intro] (start with snare drum)
Dm - Dm - Dm - Dm - Dm - Dm - Dm - Dm (&Solo1)

Solo1 (Intro solo)
e------------------|----------------------|--------------------|---------------------
B------------------|----------------------|--------------------|---------------------
G------------------|----------5-----5--x--|--5/-7--------------|------------------7~-
D------------------|----------5--7--5--x--|--5/-7--------------|------------5/-7-----
A------------------|----------------------|--------------------|---------------------
E------------------|----------------------|--------------------|---------------------
 Dm                 Dm                     Dm                   Dm

e----------------------|------------5--8----5--|------------------------|------------------|
B----------------------|----------6------------|--6~-----6--5h-6--5-----|------------------|
G---------------10--7--|--------7--------------|---------------------7~-|------------------|
D------------7---------|-----------------------|------------------------|------------------|
A----------------------|-----------------------|------------------------|------------------|
E----------------------|-----------------------|------------------------|------------------|
 Dm                     Dm                      Dm                       Dm

      

Solo2 (double four time..)
e--------------------|-----------------------|
B----------5------5--|------6--5--6--5----3--|
G----------5------5--|------5--5--5--5----3--|
D----------5------5--|------7--5--7--5----3--|
A--------------------|-----------------------|
E--------------------|-----------------------|
           C      C


Solo3 (music ring..)
e-------------------------|---------------------|----------------------|----------------------|
B-------------------------|-------------6-------|----------------------|----------------------|
G------------7-----10--7h-|--------7----7----7--|--7/-9----------------|-----------5~---------|
D------5/-7-----7---------|--------8---------8--|--8/-10---------------|-----5h-7-------------|
A-------------------------|---------------------|-------------------5/-|--7-------------------|
E-------------------------|---------------------|----------------------|----------------------|
  Dm                        Dm     Bb             Bb/ C                   C

     

Solo4 (Blowing that sound..)
e-------10--8--------|--------------------|-----------------|-----------------|------------
B----------------10~-|-------------6------|-----------------|---------6-------|------------
G-------10--9----10~-|--------7----7------|--7/-9-----------|----7----7----x--|--7/-9------
D--------------------|--------8-----------|--8/-10----------|----8---------x--|--8/-10-----
A--------------------|--------------------|-----------------|-----------------|------------
E--------------------|--------------------|-----------------|-----------------|------------
  Dm                   Dm     Bb            Bb/ C               Bb              Bb/ C

Solo5 (Chorus)
e---------------------|-------------------|------------------------|------------------------|
B----------6--5----3--|--------------6----|--6p-5----5-------------|--10--8-8-x--8~---------|
G----------7--5----3--|--------------5----|--5-------5-------6/10--|--10--9-9-x--9~---------|
D----------7--5----3--|--------------7----|--7p-5----5-------------|------------------------|
A---------------------|-------------------|------------------------|------------------------|
E---------------------|-------------------|------------------------|------------------------|
  Dm          C    Bb   Bb           C      C                        C

e---------------------|-------------------|----------------------|----------------------|
B----------6--5----3--|--------------6----|--6p-5----5-----------|----------------------|
G----------7--5----3--|--------------5----|--5-------5-----------|-----------5~---------|
D----------7--5----3--|--------------7----|--7p-5----5-----------|-----5--7-------------|
A---------------------|-------------------|--------------------5/|--7-------------------|
E---------------------|-------------------|----------------------|----------------------|
  Dm          C    Bb   Bb           C      C                        C



Solo6 (all the chords..)
--9------7----9---(10)--
--8------8----8---(10)--
------------------(10)--
------------------------
------------------------
------------------------



Solo7 (play his thing..)
e---------10--8--------|---------------------|-------------------------|--------------------------|----------
B------------------10~-|-------------6-------|------------8------------|--------------------------|----------
G-------------9----10~-|--------7----7----x--|--7/-9---9---------------|--------------5-----5-----|--5/-7~---
D---9/10---------------|--------8---------x--|--8/-10--------------10--|--------5h-7-----7-----7--|----------
A----------------------|---------------------|-------------------------|---5/7--------------------|----------
E----------------------|---------------------|-------------------------|--------------------------|----------




Solo
|----------------------------|-----------------------------|----------------------|-----5----9----12r-----
|----------------------------|-----------------------------|----------------------|--5--------------------
|--12b-----------12b---12b---|--12r-----10h12p10~-----9h10p|--9----------x-----6--|-----------------------
|----------------------------|-----------------------------|----------------7-----|-----------------------
|----------------------------|-----------------------------|----------------------|-----------------------
|----------------------------|-----------------------------|----------------------|-----------------------

|--10----------------------------|---------------------------|-------------------------|---------------------
|--------10------------------10--|--13~-----11h13p11~-----x--|--10~----------12--------|--9h-10--------------
|--------------10----------------|---------------------------|------------x------x--x--|---------------------
|--------------------12----------|---------------------------|-------------------------|---------------------
|--------------------------------|---------------------------|-------------------------|---------------------
|--------------------------------|---------------------------|-------------------------|---------------------

|------------------13----------|---------------------10/|--13----12------------------------|--------------------
|--------13------------13------|------------------------|--------------13------------------|--13--13~---13------
|--12b-------12b-----------12r-|----10~---10~-----------|--------------------12--14p---12--|--------------------
|------------------------------|------------------------|----------------------------------|--------------------
|------------------------------|------------------------|----------------------------------|--------------------
|------------------------------|------------------------|----------------------------------|--------------------
[ Tab from: http://www.guitartabs.cc/tabs/d/dire_straits/sultan_of_swing_tab_ver_2.html ]
|--------------------------|----------------------|--13p-10------10----------------|---------------------------
|--13b-------13r---11--13b-|----13r-----------10--|----------10------13b---10--10--|------------------3--6--3--
|--------------------------|----------------------|--------------------------------|--12--10\------3-----------
|--------------------------|----------------------|--------------------------------|------------3--------------
|--------------------------|----------------------|--------------------------------|---------------------------
|--------------------------|----------------------|--------------------------------|---------------------------

|-------------------------|-------------------------|----------------------|------------------------
|--------5--6/-8--6----5/-|--6/-8----------3--6--3--|----------------------|-------8----------------
|------5------------------|-------------3-----------|---------5----7----5--|--7b------7r---5--7~-7~-
|----5--------------------|----------3--------------|------5---------------|------------------------
|-------------------------|-------------------------|----------------------|------------------------
|-------------------------|-------------------------|----------------------|------------------------



Outro solo
|--------------------------|--------------------------|-----------------------------|-------------------------
|--------------------------|--------------------------|-----------------------------|-------------------------
|--12b-------12----10--12--|--10------------------12r-|------12--9h12p9--7h9p7--5h7p|--5----------------------
|--------------------------|------12~---12~-----------|-----------------------------|-----5h7p5---------------
|--------------------------|--------------------------|-----------------------------|------------5h7p5--------
|--------------------------|--------------------------|-----------------------------|-------------------------

--------------------------|---------------------|-----------8--------8--------8--------|--8--------8----------------
-----8-8-10p8----8--------|---------------------|--8h10p8-----10p8-----10p8-----10p8---|----10p8-----10p8-----------
--------------10---10--7~-|--------7-------7/9--|---------9--------9--------9--------9-|---------9--------x-x--x--x-
--------------------------|---------------------|--------------------------------------|----------------------------
--------------------------|---------------------|--------------------------------------|----------------------------
--------------------------|---------------------|--------------------------------------|----------------------------

|---------10-------------------------------------|------------------------|
|------10----13p10----10----------------------10-|------------------------|
|--12b-------------12----12p10----10-------10----|--12~-------------10-12-|
|------------------------------12----10h12-------|------------------------|
|------------------------------------------------|------------------------|
|------------------------------------------------|------------------------|

-----------------------------|--------12--------10--------|
--10~------------11----x--x--|--11b-------11r-------------|
--------x--10-12-------x--x--|----------------------x--x--|
-----------------------------|----------------------------|
-----------------------------|----------------------------|
-----------------------------|----------------------------|

--13p10----10-13p10----10-13p10----10-13p10----10-|--13p10----10-13p10----10-13p10----10-13-x----12-|
--------10----------10----------10----------10----|--------11----------11----------11---------13----|
--------------------------------------------------|-------------------------------------------------|
--------------------------------------------------|-------------------------------------------------|
--------------------------------------------------|-------------------------------------------------|
--------------------------------------------------|-------------------------------------------------|

--15p12----12-15p12----12-15p12----12-15p12----12-|--15p12----12-15p12----12-15p12----12-15p12----10-|
--------13----------13----------13----------13----|--------13----------13----------13----------10----|
--------------------------------------------------|--------------------------------------------------|
--------------------------------------------------|--------------------------------------------------|
--------------------------------------------------|--------------------------------------------------|
--------------------------------------------------|--------------------------------------------------|

--13p10----10-13p10----10-13p10----10-13p10----10-|--13p10----10-13p10----10-13p10----10-13-x----12-|
--------10----------10----------10----------10----|--------11----------11----------11---------13----|
--------------------------------------------------|-------------------------------------------------|
--------------------------------------------------|-------------------------------------------------|
--------------------------------------------------|-------------------------------------------------|
--------------------------------------------------|-------------------------------------------------|

--15p12----12-15p12----12-15p12----12-15p12----12-|--15p12----12-15p12----12-15p12----12-15p12-----|
--------13----------13----------13----------13----|--------13----------13----------13----------13--|
--------------------------------------------------|------------------------------------------------|
--------------------------------------------------|------------------------------------------------|
--------------------------------------------------|------------------------------------------------|
--------------------------------------------------|------------------------------------------------|


--15b-------15r---13--15--|--13------------13------15r-|----15r---12h15p12------------------|----------------------|
--------------------------|------15~-----------13------|--------------------13h15p13--10h13p|--10------------------|
--------------------------|----------------------------|------------------------------------|------9h12------------|
--------------------------|----------------------------|------------------------------------|-----------12--10\----|
--------------------------|----------------------------|------------------------------------|----------------------|
--------------------------|----------------------------|------------------------------------|----------------------|

---------------------|-------------------|----------------------|----------------------|--||
----------6--5----3--|--------------6----|--6p-5----5--------5/-|--10--8----8~---------|--||
----------7--5----3--|--------------5----|--5-------5--------5/-|--10--9----9~---------|--||
----------7--5----3--|--------------7----|--7p-5----5-----------|----------------------|--||
---------------------|-------------------|----------------------|----------------------|--||
---------------------|-------------------|----------------------|----------------------|--||

Chords:
Dm   x57765 / xx0231
C    x35553 / 8(10)(10)988
Bb   x13331 / 688766
A    x02220 / 577655
A7   x02020 / 575655
F    133211

Transcribed by arjan@rawktabs.tmfweb.nl
 ____                _    _        _         
|  _ \ __ ___      _| | _| |_ __ _| |__  ___ 
| |_) / _` \ \ /\ / / |/ / __/ _` | '_ \/ __|
|  _ < (_| |\ V  V /|   
Comments