Dire Straits - Romeo And Juliet Chords & Tabs

 

Romeo And Juliet Chords & Tabs

Dire Straits Chords & Tabs

Version: 6 Type: Tab 0 ratings
1 star 2 stars 3 stars 4 stars 5 stars
comments

Romeo And Juliet Tab

 ------------------------------------------------------------------------------
			     ROMEO AND JULIET  - DIRE STRAITS
-------------------------------------------------------------------------------
Tabbed by: James Fennell
Email: simonandgar@hotmail.com
Put the Gain and Reverb on the amp a bit up and the capo on the third fret to get the
sound like the song but dont worry if your guitar dosent sound as good as Mark Knopfler's
two million dollar one!.
If youve any comments (good or bad) dont hesitate to email me.


Intro-
 e|----2--------2------2--0---------------------0---------|
 B|--------3--------3--3-----2--3--------3------3--2/5----|
 G|------2---2----2----2------------2--------2--2---------|
 D|--------------------0----------0---0----0----0---------|
 A|-------------------------------------------------------|
 E|-------------------------------------------------------|

 e|----2--------2---------0/2----------------------0------|
 B|--------3--------3----3------2--3--------3------3--2/5-|
 G|------2---2----2-----2--------------2--------2--2------|
 D|--------------------0-------------0---0----0----0------|
 A|-------------------0-----------------------------------|
 E|-------------------------------------------------------|

 e|----2--------2------2--0-------------------------2--0--|
 B|--------3--------3--3-----2--3--------3-------3--------|
 G|------2---2----2----2------------2--------2------------|
 D|--------------------0----------0---0----0--------------|
 A|-------------------------------------------------------|
 E|-------------------------------------------------------|


 e|----2--------2---------0/2----------------------0------|
 B|--------3--------3----3------2--3--------3------3--2/5-|
 G|------2---2----2-----2--------------2--------2--2------|
 D|--------------------0-------------0---0----0----0------|
 A|-------------------0-----------------------------------|
 E|-------------------------------------------------------|


After the Verse go straight into this - its near enough to the intro:

 e|-----------------------0/2----------------------0------|
 B|----------------------3------2--3--------3------3--2/5-|
 G|---------------------2--------------2--------2--2------|
 D|--------------------0-------------0---0----0----0------|
 A|-------------------0-----------------------------------|
 E|-------------------------------------------------------|
[ Tab from: http://www.guitartabs.cc/tabs/d/dire_straits/romeo_and_juliet_tab_ver_6.html ]
 e|----2--------2------2--0----------------------0--------|
 B|--------3--------3-----------3--------3-------3--------|
 G|------2---2----2-----------------2--------2---2--------|
 D|-------------------------------0---0----0-----0--------|
 A|-------------------------------------------------------|
 E|-------------------------------------------------------|


After the second Verse play the same thing as after the first Verse:

 e|-----------------------0/2----------------------0------|
 B|----------------------3------2--3--------3------3--2/5-|
 G|---------------------2--------------2--------2--2------|
 D|--------------------0-------------0---0----0----0------|
 A|-------------------0-----------------------------------|
 E|-------------------------------------------------------|

 e|----2--------2------2--0----------------------0--------|
 B|--------3--------3-----------3--------3-------3--------|
 G|------2---2----2-----------------2--------2---2--------|
 D|-------------------------------0---0----0-----0--------|
 A|-------------------------------------------------------|
 E|-------------------------------------------------------|


This time its the same again but a little extra:

 e|-----------------------0/2----------------------0------|
 B|----------------------3------2--3--------3------3--2/5-|
 G|---------------------2--------------2--------2--2------|
 D|--------------------0-------------0---0----0----0------|
 A|-------------------0-----------------------------------|
 E|-------------------------------------------------------|

 e|----2--------2-------2---0---------------------0-------|
 B|--------3--------3------------3--------3-------3--2/5--|
 G|------2---2----2------------------2--------2---2-------|
 D|--------------------------------0---0----0-----0-------|
 A|-------------------------------------------------------|
 E|-------------------------------------------------------|

 e|----2--------2------2--0---------------------0---------|
 B|--------3--------3--3-----2--3--------3------3--2/5----|
 G|------2---2----2----2------------2--------2--2---------|
 D|--------------------0----------0---0----0----0---------|
 A|-------------------------------------------------------|
 E|-------------------------------------------------------|

 e|----2--------2-------2---0--2----0---------------------|
 B|--------3--------3------------------3--0--3------------|
 G|------2---2----2---------------------------------------|
 D|-------------------------------------------------------|
 A|-------------------------------------------------------|
 E|-------------------------------------------------------|
Comments