Dire Straits - On Every Street Chords & Tabs

 

On Every Street Chords & Tabs

Dire Straits Chords & Tabs

Version: 3 Type: Tab 0 ratings
1 star 2 stars 3 stars 4 stars 5 stars
comments

On Every Street Tab

   
-----------------------------------------------------------------------------
                           Dire Straits / On Every Street
-----------------------------------------------------------------------------
Tabbed by:Dan

Tuning:E A D G B E

Verse 1
          F          C            G     C
There's gotta be a record of you some place

        Am          G          C 
Youve gotta be on somebodys books

F      C        G               Esus4
The lowdown a picture of youre face

Am              Em
Youre injured looks

F                C
The sacred and profane

F                    C   G
The plesure and the pain

C                   G          Am      Em
Somewhere youre fingerprints remain concrete
[ Tab from: http://www.guitartabs.cc/tabs/d/dire_straits/on_every_street_tab_ver_3.html ]
     Dm                 Bb     
And its youre face im looking for

C
On every street


e|-----------
B|-----------
G|-----------
D|-----------
A|----3b5----
E|-------5---


Instr:

e|------0----------|-----------------|
B|----------3------|------0---1---0--|
G|--2-----------0--|--2--------------|
D|-----------------|--------------0--|   Am
A|-----------------|-----------------|
E|--1---3---2---0--|--1---0---3------|


Verse 2

same as verse 1


instr:

same but 2x


Verse 3

same as 1 and 2


Outro:

e|------0----------|-------------|--------------|
B|-----------0---3-|-------------|-----0------1-|
G|--2--------------|------0----2-|---------0----|
D|-----0-------0---|-----0----0--|----0-----2---|
A|-----------------|-------------|--------------|
E|--1-----3--------|--2-----0----|--1----0------|


e|------------------|
B|--------0-------0-|
G|----0-------0-----|
D|------0---0---0---|
A|------------------|
E|--3---------------|
Comments