Dire Straits - Money For Nothing Chords & Tabs

 

Money For Nothing Chords & Tabs

Dire Straits Chords & Tabs

Version: 5 Type: Tab 0 ratings
1 star 2 stars 3 stars 4 stars 5 stars
comments

Money For Nothing Tab

#----------------------------------PLEASE NOTE--------------------------------#
#This file is the author's own work and represents their interpretation of the#
#song. You may only use this file for private study, scholarship, or research.#
#-----------------------------------------------------------------------------#
#-- File created with Instab - http://www.pconline.com/~smcarey/instab.html --#
#-----------------------------------------------------------------------------#

Author/Artist: Dire Straits
Title: Money for Nothing
Album: ..
Transcribed by: Kr?pton?te
Email: kryptonyte@powerweb.net

The right way of doin it...
[ Tab from: http://www.guitartabs.cc/tabs/d/dire_straits/money_for_nothing_tab_ver_5.html ]
------------------|-------------------|-----------------|---------------------|
-3--3--3-----3--6-|-----3-------------|-----------------|---------------------|
----------5-----5-|--------5-5-3------|---------3-------|-------5--3----------|
-5--5--5--5--5----|-5---5--5-5-3--5-5-|----5----3-------|-3/5---5--3--5-------|
------------------|---------------5-5-|-5--5-------5--5-|-1/3---------5-------|
------------------|-------------------|-----------------|---------------------|


--------------------------|-----3--------------|-------------------|----------|
--------3----3------3---3-|--3-----------------|-------------------|----------|
----------------5---------|--------5--3--------|-------------3-----|----------|
---5----5----5--5---5---5-|--5--5--5--3---5--5-|--4-----5------5---|-3/5---5--|
--------------------------|---------------5--5-|--------5--------5-|-3/5---5--|
--------------------------|--------------------|-------------------|----------|
 There ya go...it should be finger picked buy I play it both
Comments