Dire Straits - Money For Nothing Chords & Tabs

 

Money For Nothing Chords & Tabs

Dire Straits Chords & Tabs

Version: 4 Type: Tab 0 ratings
1 star 2 stars 3 stars 4 stars 5 stars
comments

Money For Nothing Tab

Title: Money for Nothing
Artist: Dire Straits
Tabed by: Steve Pike (bino_69@hotmail.com)

this is susposed to be a hard song to play, nah, not really

Intro:

e--------------------------------------------------------------
b-------------6---------------------------------------------
g---7-7-p-5-7---7-5-7-5-3-0-3-/-5-5-0-3-/-5---0*------------
d---5-5---5-5---5-5-5-5-3-0-3-/-5-5-0-3-/-5---0*------------
a-----------------------------------------------------------
E-----------------------------------------------------------
*dontknow if this is right, but i just throw it in any way

Thats how i play it, and it souds dam good to me

chorus:

We gotta install microwave ovens

e--------------------------------
b--------------------------------
g---3-----------------3----------
d---1-----------------3----------
a--------------------------------
E--------------------------------

Custom kitchen deliveries
[ Tab from: http://www.guitartabs.cc/tabs/d/dire_straits/money_for_nothing_tab_ver_4.html ]
e-------------------------------
b-------------------------------
g---3--------------5------------
d---1--------------3------------
a-------------------------------
E-------------------------------

We gotta move these refrigerators

e------------------------------
b------------------------------
g--------7----------------------
d--------5----------------------
a------------------------------
E------------------------------

We gotta move these colour TV's

e--------------------------------------
b--------------------------------------
g--5------------------7----------9-----
d--5------------------7----------9-----
a--------------------------------------
E--------------------------------------

if this aint right, hopefully it hepls a bit, I searched the inter net and couldnt find a tab for this that sounded 
right anywhere, so i just listened to the song till I came up with this, im almost positive that the chorus is right
but the intro is just messed up, Mark Knopfler is just crazy.
Comments