Dire Straits - Local Hero Wilde Theme Chords & Tabs

 

Local Hero Wilde Theme Chords & Tabs

Dire Straits Chords & Tabs

Version: 1 Type: Tab 1 rating
1 star 2 stars 3 stars 4 stars 5 stars
comments

Local Hero Wilde Theme Tab

   
#----------------------------------PLEASE NOTE---------------------------------#
#This file is the author's own work and represents their interpretation of the #
#song. You may only use this file for private study, scholarship, or research. #
#------------------------------------------------------------------------------##

                         LOCAL HERO - WILD THEME (Live)
                           As recorded by Dire Straits
                     (From the 1998 Album SULTANS OF SWING)

Music by Mark Knopfler
Transcribed by Mr DK

Gtr I (E A D G B E) - 'Mark Knopfler'
Gtr II (D A D G B E) - 'Guy Fletcher - Keyboards'

 Intro                     1st Section
  Freely Q=90
  D
 4/4
  Gtr I
  W           H.      Q      E   E   E  E E  E  E E    E   E  E E E E E E
|----------|-------------||-------------------------|---------------------|
|----------|-------------||-^7--(7)-(7)-7---------7-|---------------------|
|----------|-------------||-^7-------7----9-(9)-7---|-----------7-----7-9-|
|----------|----------7--||-^7---7-----------7------|--7--(7)-7---7-------|
|----------|-------------||-^9----------------------|------9--------9-----|
|----------|-------------||-------------------------|---------------------|
|
| Gtr II
| W          +W             +W                        +W
|----------|-------------||-------------------------|---------------------|
|----------|-------------||-------------------------|---------------------|
|----------|-------------||-------------------------|---------------------|
|----------|-------------||-------------------------|---------------------|
|-0--------|-(0)---------||-(0)---------------------|-(0)-----------------|
|-0--------|-(0)---------||-(0)---------------------|-(0)-----------------|


                                    H.=H       Q=H=H
   E   E   E   E   E   E   E   E      E  E E E Q  Q
|---------------------------------|------------------|
|--7--(7)-(7)-(7)-(7)-(7)-10-(10)-|-^10--------8p=7--|
|--------------7------------------|-^-7----7---------|
|----------7-----------7-------7--|-^-7--7---7-------|
|------9-----------9--------------|------------------|
|---------------------------------|------------------|
|
| +W                                 +W
|---------------------------------|------------------|
|---------------------------------|------------------|
|---------------------------------|------------------|
|---------------------------------|------------------|
|-(0)-----------------------------|--(0)-------------|
|-(0)-----------------------------|--(0)-------------|


  Q=90
  F#m
    E   E    E   E E  E   E   E    E  E  E  E   E   E  E E
|-------------------------------|---------------------------|
|-^10-(10)-(10)-10-9-(9)-(9)-10-|------------------------9--|
|-^11-------11-----------11-----|-11-------11-(11)----11----|
|-^11--11------------11---------|-------11-----11--11-------|
|-^-9---------------------------|-----9---------------------|
|-------------------------------|---------------------------|
|
|   W                             +W
|-------------------------------|---------------------------|
|-------------------------------|---------------------------|
|-------------------------------|---------------------------|
|-------------------------------|---------------------------|
|---4---------------------------|-(4)-----------------------|
|---4---------------------------|-(4)-----------------------|


   E    E    E   E  +E   E  E E    Q.    S  S E  E  Q
|-------------------------------|----------------------|
|-10--(10)-(10)-10-(10)-------9-|-10----12p10-9--------|
|-----------11-------------11---|------------------11--|
|------11---------------11------|---------------11-----|
|-------------------------------|----------------------|
|-------------------------------|----------------------|
|
| +W                              +W
|-------------------------------|----------------------|
|-------------------------------|----------------------|
|-------------------------------|----------------------|
|-------------------------------|----------------------|
|-(4)---------------------------|-(4)------------------|
|-(4)---------------------------|-(4)------------------|


  G/B
  T
  E E E E E E E E     H     +E  E E E
|------------------|----------------2S=|
|-8-------7-----8\-|--------------5----|
|-----7-------7----|--4-----(4)-4------|
|---0---0---0------|-------------------|
|------------------|-------------------|
|-7----------------|-------------------|
|
| W                  +W
|------------------|-------------------|
|------------------|-------------------|
|------------------|-------------------|
|------------------|-------------------|
|-2----------------|-(2)---------------|
|-0----------------|-(0)---------------|


  Em
  E E E E +E  E E E    Q.     S S Q  Q
|-3-----3-(3)-----2-|--3------5p3S2-----|
|-----5---------5---|----------------5--|
|---4---------4-----|-----4-4-----------|
|-------------------|-------------------|
|-------------------|-------------------|
|-------------------|-------------------|
|                      E  E Q     H
|
| W                   +W
|-------------------|-------------------|
|-------------------|-------------------|
|-------------------|-------------------|
|-------------------|-------------------|
|-2-----------------|-(2)---------------|
|-2-----------------|-(2)---------------|


  D/A
  A  H        H          E  E E E E E E E
|---------------------|--------------------|
|-5s=7------7-------7-|---------------7----|
|-5s=7----7---9---7---|---------7-7-----7--|
|-5s=7--7-------7-----|--7----7-----7------|
|-0-(0)---------------|-----9--------------|
|---------------------|--------------------|
|    E  E E E E E E E
|
|    W                  +W
|---------------------|--------------------|
|---------------------|--------------------|
|---------------------|--------------------|
|----4----------------|-(4)----------------|
|----0----------------|-(0)----------------|
|----0----------------|-(0)----------------|


                     H.=H      Q=65
  A13
   E  E   E  E E E E E    Q.    S S  Q   E  E
|----------------------|-----------------------|
|-^7-(7)-(7)-7-5-----7s|==8----10p8p=7s==5-(5)-|
|-^6------6--------6---|-----------------------|
|-^5--5----------5-----|-----------------------|
|-^0-------------------|-----------------------|
|----------------------|-----------------------|
|
|                                    >
|  W                     +H         +H
|----------------------|-----------------------|
|----------------------|-----------------------|
|----------------------|-----------------------|
|--5-------------------|-(5)--------(5)--------|
|--0-------------------|-(0)--------(0)--------|
|----------------------|-----------------------|


  Q=90
  G/B                                Em/G
  T
  E  E   E   E  E E E E    Q..   T T E E E E
|-----------------------|----------------3----|
|-8-(8)-(8)-(8)-7-----8-|------------5--------|
|--------7----------7---|----------4----------|
|----0-------0----0-----|--9-----5-----5---5--|
|-----------------------|---------------------|
|-7---------------------|---------------------|
|
| W                       +H         H
|-----------------------|---------------------|
|-----------------------|---------------------|
|-----------------------|---------------------|
|-----------------------|---------------------|
|-2---------------------|-(2)--------2--------|
|-0---------------------|-(0)--------5--------|


  D/A
  A E E E E E E E E    E  E E E A E E E E
|-------------------|---------------------|
|-3s7-----7-------7-|-----------------7---|
|-------7---9---7---|--7--------6s7-----7-|
|-----7-------7-----|-----7---7-----7-----|
|-------------------|-------9-------------|
|-------------------|---------------------|
|
|   W                 +W
|-------------------|---------------------|
|-------------------|---------------------|
|-------------------|---------------------|
|---4---------------|-(4)-----------------|
|---0---------------|-(0)-----------------|
|---0---------------|-(0)-----------------|


                         H.=H     Q=65
  A13
   E  E   E  E E E E E    Q.    S S Q  E S S
|----------------------|-----------------------||
|-^7-(7)-(7)-7-5-----7s|==8----10p8-7--5---0---||
|-^6------6--------6---|-----------------0-----||
|-^5--5----------5-----|-----------------------||
|-^0-------------------|-----------------------||
|----------------------|-----------------------||
|
|  W                     +W
|----------------------|-----------------------||
|----------------------|-----------------------||
|----------------------|-----------------------||
|--5-------------------|-(5)-------------------||
|--0-------------------|-(0)-------------------||
|----------------------|-----------------------||


 2nd Section
  Q=95
  G#m7b5                                G6
  T                  T                          ~~
  E E E E E E E E    E  E E E E E E E   E E E E Q.   E    E   E  E E H
|-----------------|-------------------|----------------|------------------|
|-3-------2-----3-|---------------3---|-3-----3-2----3-|-----------3------|
|-----4-------4---|-------4---4-------|-----4----------|-------------4----|
|---4---4---4-----|-----4---4---4---4-|---2------------|--2--(2)-2--------|
|-----------------|-------------------|----------------|------------------|
|-4---------------|--4----------------|-3--------------|------3-----------|
|
| W                 +W                  W                +W
|-----------------|-------------------|----------------|------------------|
|-----------------|-------------------|----------------|------------------|
|-----------------|-------------------|----------------|------------------|
|-4---------------|-(4)---------------|-2--------------|-(2)--------------|
|-----------------|-------------------|----------------|------------------|
|-6---------------|-(6)---------------|-5--------------|-(5)--------------|


  Bm/F#
  T                  T
  E E E E E E E E    E  E E E E E E  E
|-----------------|---------------------|
|-3-------2-----3-|---------------2-(2)-|
|-----4-------4---|-------4---4------4--|
|---4---4---4-----|-----4---4---4-------|
|-----------------|---------------------|
|-2---------------|--2------------------|
|
| W                 +W
|-----------------|---------------------|
|-----------------|---------------------|
|-----------------|---------------------|
|-4---------------|-(4)-----------------|
|-----------------|---------------------|
|-4---------------|-(4)-----------------|


  Bm
  E E E E E E E  S   S     Q.   E +Q   Q
|-----------------------|------------------||
|-3-------2------2h==3--|--2---------------||
|-----4-------4-(4)-(4)-|-(4)---4-(4)--2s==||
|---4---4---4-----------|------------------||
|-2---------------------|------------------||
|-----------------------|------------------||
|
| W                       +W
|-----------------------|------------------||
|-----------------------|------------------||
|-----------------------|------------------||
|-4---------------------|-(4)--------------||
|-2---------------------|-(2)--------------||
|-----------------------|------------------||


 3rd Section
  D                                        G                    D
                                          2/4                  4/4
                ~~~                                              ~~
   E  Q   E  E  Q.      +H     a  Q   Q     E.  S  T  T  S  E    W
|--------------------|-------------------|--------------------|-------|
|-----------10-10----|-(10)----------10S=|=12--14-12h14p12s10-|-------|
|-11-11--11----------|---------7s11------|--------------------|-11----|
|--------------------|-------------------|--------------------|-------|
|--------------------|-------------------|--------------------|-------|
|--------------------|-------------------|--------------------|-------|
|
|  W                    +W                  H                    W
|--------------------|-------------------|--------------------|-------|
|--------------------|-------------------|--------------------|-------|
|--2-----------------|--(2)--------------|--0-----------------|--2----|
|--4-----------------|--(4)--------------|--0-----------------|--4----|
|--0-----------------|--(0)--------------|--2-----------------|--0----|
|--0-----------------|--(0)--------------|--5-----------------|--0----|


              Bm           A                    A/G              D/F#
                                                                2/4
                                                  ~~~~
                                                        |-3-|     |-3--|
   +Q.    S S  Q.     E    a  E. S +E  E H        H     Q Q Q     Q  Q Q
|------------------------|--------------------|----------------|----------|
|-------------------(10)-|--------------------|-^10------------|--7-------|
|-(11)---11p9h11-----11--|-9h11--9-(9)s7-9----|-^-9-------7-9--|-(7)-7----|
|------------------------|--------------------|-^-7-----7------|-------7--|
|------------------------|--------------------|----------------|----------|
|------------------------|--------------------|----------------|----------|
|
|  +H          H              W                   W               H
|------------------------|--------------------|----------------|----------|
|--------------3---------|----2---------------|--(2)-----------|--3-------|
|--(2)---------4---------|----2---------------|--(2)-----------|-(2)------|
|--(4)---------4---------|----2---------------|--(2)-----------|--0-------|
|--(0)---------2---------|----0---------------|--(0)-----------|----------|
|--(0)-------------------|--------------------|---5------------|--4-------|


    G               Em      A7
 4/4
             ~
  A Q.   S S H      +Q.   E  E  E E  E
|-----------------|--------------------|
|-----------------|--------------------|
|-----------------|-------6--7s=9-9s11-|
|-7h9----9p7h9----|-(9)----------------|
|-----------------|--------------------|
|-----------------|--------------------|
|
|   W                H       H
|-----------------|--------------------|
|-----------------|--0-------2---------|
|---0-------------|-(0)-----(0)--------|
|---0-------------|--2------(2)--------|
|---2-------------|-(2)------0---------|
|---5-------------|--2-----------------|


  D
       ~~        ~~~
   E   Q   E  E  Q.      +E  E E E E  E  E E
|---------------------|-----------------10-9-|
|------------10-10----|-(10)-------7-10------|
|-11--11--11----------|--------7-9-----------|
|---------------------|------7---------------|
|---------------------|----------------------|
|---------------------|----------------------|
|
|  W                     +W
|---------------------|----------------------|
|---------------------|----------------------|
|--2------------------|--(2)-----------------|
|--4------------------|--(4)-----------------|
|-(0)-----------------|--(0)-----------------|
|--0------------------|--(0)-----------------|

[ Tab from: http://www.guitartabs.cc/tabs/d/dire_straits/local_hero_wilde_theme_tab.html ]
  G               D
 2/4             4/4
                  ~
       |-3-|
  E. S S S S  E   H    +E  A     +S  +S      +E  +E
|-7--9-7h9p7----|------------------------------------|
|------------10-|-7----(7)---------------------------|
|---------------|----------9b11==(9)r(9)b11==(9)r(9)-|
|---------------|------------------------------------|
|---------------|------------------------------------|
|---------------|------------------------------------|
|
| H               W
|---------------|------------------------------------|
|---------------|------------------------------------|
|-0-------------|-2----------------------------------|
|-0-------------|-4----------------------------------|
|-2-------------|-0----------------------------------|
|-5-------------|-0----------------------------------|


                 Bm          A
   Q.   S    +S  Q.    E   a  E Q  E Q    Q
|------------------------|---------------------|
|----------------7----10-|--------------(10)---|
|--7----9b11-(9)---------|-9s11-9--7-9---------|
|------------------------|---------------------|
|------------------------|---------------------|
|------------------------|---------------------|
|
| +H             H            W
|------------------------|---------------------|
|----------------3-------|----2----------------|
|-(2)------------4-------|----2----------------|
|-(4)------------4-------|----2----------------|
|-(0)------------2-------|----0----------------|
|-(0)--------------------|---------------------|


  A/G               D/F#      G          A7         D
                                        2/4        4/4
          |--3--|    |-3--|    |-3--|
    H     Q a Q Q    Q  Q Q a  Q  Q Q     Q.    E    H     +E  S S Q
|-----------------|--------------------|----------|-------------------||
|-(10)------------|--7--------------7--|----------|----------------7--||
|--(9)------7-7-9-|-----7---------7----|--9-------|------------7h9----||
|---------7-------|-------7-7h=9-------|--------7-|-(7)----(7)--------||
|-----------------|--------------------|-------10s|==9-----(9)--------||
|-----------------|--------------------|----------|-------------------||
|
|   W                H         H          H          W
|-----------------|--------------------|----------|-------------------||
|--(2)------------|--3-----------------|--2-------|-------------------||
|--(2)------------|-(2)--------0-------|-(0)------|--2----------------||
|--(2)------------|--0--------(0)------|--2-------|--4----------------||
|--(0)------------|------------2-------|--0-------|-(0)---------------||
|---5-------------|--4---------5-------|----------|--0----------------||


 4th Section
  Bm             A6              G          Dadd9/F#
     E   E  E  E E  E  E  E    A  E  E E  E  E E E S S
|-^-10--------10-9----------|--------------------------|
|-^-12-----12------10----10-|-10s12------12-10-----8p7-|
|-^(11)-11------------11----|-------11s9-------9s7-----|
|-^(12)---------------------|--------------------------|
|---------------------------|--------------------------|
|---------------------------|--------------------------|
|
|    H           H                H          H
|----------------2----------|----------------0---------|
|----3-----------2----------|-----0--------------------|
|----4-----------2----------|-----0----------2---------|
|----4-----------2----------|-----0----------0---------|
|----2-----------0----------|-----2----------5---------|
|---------------------------|-----5----------4---------|


  Em                  D/F#         G   E7/G#   A  F#7/A#
               |-3--|                |---3---|
  E. A  S  +E  S  S S E. S +E  E   A Q Q     Q H
|--------------------------------|---------------------|
|-8--8s10-(10)-8h10p8-7----------|-----------7---------|
|------------------------7-(7)---|-----7-------9-------|
|------------------------------7-|-7h9-----------------|
|--------------------------------|---------------------|
|--------------------------------|---------------------|
|
| H                   H              Q    Q    Q   Q
|--------------------------------|---------------------|
|-0-------------------3----------|---0---(0)---2--(2)--|
|-0-------------------2----------|---0----1----2---3---|
|-2-------------------0----------|---0---(0)---2--(2)--|
|-2------------------------------|---2---(2)---0---1---|
|-2-------------------4----------|---5----6------------|


  Bm                            F#m
     <
  S  A      +S   +S      +E.  E  E    E    Q
|----------------------------------------------|
|---17b19==(17)r(17)b19-(17)-15-14h=(15)p(14)--|
|----------------------------------------------|
|----------------------------------------------|
|----------------------------------------------|
|----------------------------------------------|
|
| H                              H
|----------------------------------------------|
|-3------------------------------2-------------|
|-4------------------------------2-------------|
|-4-----------------------------(4)------------|
|-2------------------------------4-------------|
|--------------------------------2-------------|


  G                      D/F#                Em          D/A         Gmaj7
                                                                  2/4
              |--3--|                            |--3--|  |-3-|
   +E   S  S  S  S  S  E  E   E  +E   S  S    a  Q  Q  Q  Q Q Q    a Q.   E
|------10h12-10----------------------------|---------------------|-----------|
|-(14)-10----10h12p10--------10-(10)-------|-------10------------|-----------|
|---------------------12-11----------12-11-|-11s12----12-11S7----|-----------|
|------------------------------------------|------------------7--|-7h9----7--|
|------------------------------------------|---------------------|-----------|
|------------------------------------------|---------------------|-----------|
|
|   H                     H                      H        H          H
|------------------------------------------|--------------2------|---2-------|
|---0---------------------3----------------|-----0--------3------|---0-------|
|---0---------------------2----------------|-----0--------2------|---0-------|
|---0--------------------(0)---------------|-----2--------0------|---4-------|
|---2--------------------------------------|-----2--------0------|---2-------|
|---5---------------------4----------------|-----2---------------|---5-------|


                   5th Section
  Q=50       Q=95
  Asus4 A           D                            Bm        G
 4/4                                                      2/4
                                ~~~
                                                                   |--3--|
  H.         E E    E E E E  E  Q.      +H     A  Q   Q     E.  S  S  S  S  E
|----------------||------------------|-------------------|--------------------|
|----------------||-7-----7-10-10----|-(10)----------10S=|=12--14-12h14p12-10-|
|----------------||-----7------------|---------9s11------|--------------------|
|-7----------7---||---7--------------|-------------------|--------------------|
|--------------9-||------------------|-------------------|--------------------|
|----------------||------------------|-------------------|--------------------|
|
| H      H          W                   +H        H         H
|-0-----(0)------||------------------|-------------------|--------------------|
|-3------2-------||------------------|------------3------|--0-----------------|
|-2-----(2)------||-2----------------|--(2)-------4------|--0-----------------|
|-2-----(2)------||-4----------------|--(4)-------4------|--0-----------------|
|-0-----(0)------||-0----------------|--(0)-------2------|-(2)----------------|
|----------------||-0----------------|--(0)--------------|--5-----------------|


  D                     Bm
 4/4
   ~~
   W           E  E E E  E  A     +E  +E  E
|-----------|-------------------------------|
|-----------|-----------10------------------|
|-11--------|-------7-9--7--9b11==(9)r(9)-7-|
|-----------|-----7-------------------------|
|-----------|-------------------------------|
|-----------|-------------------------------|
|
|  W          +H         H
|-----------|-------------------------------|
|-----------|------------3------------------|
|--2--------|-(2)--------4------------------|
|--4--------|-(4)-------(4)-----------------|
|--0--------|-(0)--------2------------------|
|--0--------|-(0)---------------------------|


  Asus4                  A/G
                    ~
  A    +E  Q  E E E Q    +H     +E  E Q
|----------------------|-----------------|
|---------------7-8----|--------------8--|
|-9b11-(9)-9--7-----9--|-(9)----(9)------|
|----------------------|------------7----|
|----------------------|-----------------|
|----------------------|-----------------|
|
|       W                 W
|-------0--------------|-(0)-------------|
|-------3--------------|--2--------------|
|-------2--------------|-(2)-------------|
|-------2--------------|-(2)-------------|
|-------0--------------|-(0)-------------|
|----------------------|--5--------------|


  D/F#  G           D/F#   Em        A7sus4      D
 6/4                      4/4
            ~    ~                                             ~~
  |-3-|                                             |---3---|
  Q Q Q  E  Q  E H         +E  E E E  E  E E E   A  Q Q  E  E  H
|------------------------|---------------------|--------------------|
|-7------7--8------------|-----7-8-------------|-----------10-10----|
|---7----------7---------|---------9--7--9-7s6-|-9s11-9-11----------|
|-----7----------9-------|-(9)-----------------|--------------------|
|------------------------|---------------------|--------------------|
|------------------------|---------------------|--------------------|
|
| H      H.          Q      H         H             W
|------------------------|------------0--------|--------------------|
|-3------0-----------3---|--0---------3--------|--------------------|
|-2------0-----------2---|--0--------(0)-------|----2---------------|
|-0-----(0)---------(0)--|--2--------(2)-------|----4---------------|
|--------2---------------|--2---------0--------|----0---------------|
|-4------5-----------4---|--2------------------|----0---------------|


                 Bm              G
                                2/4
            <
   +Q   Q   A     +E   E  E  E    E. S  E  S  S
|------------------------------|----------------|
|-(10)-----17b19-(17)-17-15-14-|----------------|
|------------------------------|-16s18s16-14h16p|
|------------------------------|----------------|
|------------------------------|----------------|
|------------------------------|----------------|
|
|  +H              H              H
|------------------------------|----------------|
|------------------3-----------|--0-------------|
|--(2)-------------4-----------|--0-------------|
|--(4)-------------4-----------|--0-------------|
|--(0)-------------2-----------|--2-------------|
|--(0)-------------------------|--5-------------|


  D                                  Bm
 4/4
          T    ~~~~                   ~~~~~~~
   Q.     E    H        Q    A  E  E  E  +Q    E
|--------------------|---------------------------|
|-------------15-----|------10s12-12-12-(12)--12-|
|-14----(14)-(14)----|-------9s11-11-11-(11)--11-|
|--------------------|---------------------------|
|--------------------|---------------------------|
|--------14--(14)----|---------------------------|
|
|  W                   +H             H
|--------------------|---------------------------|
|--------------------|----------------3----------|
|--2-----------------|-(2)------------4----------|
|--4-----------------|-(4)------------4----------|
|--0-----------------|-(0)------------2----------|
|--0-----------------|-(0)-----------------------|


  A                       A/G             D/F#    G          A
                                                            2/4
                    ~~~~~~~~~~
                                           |-3--|  |-3--|
   E Q   E  a  E E +Q     +H     Q  E E    Q  Q Q  Q  Q Q    Q.    E
|-----------------------|---------------|------------------|-----------|
|-----------------------|---------------|--7------------7--|-----------|
|-11s9--(7)-9s11-9-(9)--|-(9)-------7h9-|-(7)-7-------7----|-9-----7---|
|-----------------------|--------7------|-------7--9-------|-------7---|
|-----------------------|---------------|------------------|------10s==|
|-----------------------|---------------|------------------|-----------|
|
|  W                       W               H       H         H
|--0--------------------|-(0)-----------|------------------|-0---------|
|--2--------------------|-(2)-----------|--3-------0-------|-2---------|
|--2--------------------|-(2)-----------|--2-------0-------|-2---------|
|--2--------------------|-(2)-----------|--0------(0)------|-2---------|
|--0--------------------|-(0)-----------|----------2-------|-0---------|
|-----------------------|--5------------|--4-------5-------|-----------|


                               Outro
                                  Freely Q=48
  D                               Bm        Gsus2
 4/4
                      |-3-|
   W           +H     Q Q Q     a  Q.   S S Q  S S  S T  T
|------------|---------------||------------------------------|
|------------|---------------||------------------------------|
|-(7)--------|-(7)------7-9--||-9s11----7p6----7h9s11-9h11p==|
|-(7)--------|-(7)----7------||-------------9----------------|
|--9---------|-(9)-----------||------------------------------|
|------------|---------------||------------------------------|
|
|  W           +W                  H        H
|------------|---------------||------------------------------|
|------------|---------------||----3--------3----------------|
|-(2)--------|-(2)-----------||----4--------2----------------|
|--4---------|-(4)-----------||----4--------5----------------|
|-(0)--------|-(0)-----------||----2--------5----------------|
|--0---------|-(0)-----------||-------------5----------------|


                       Q=95        H.=H       Q=40
  (A7)                 (D)
  ~      T
                       |----6----|
  Q  +S  S  Q   Q.     S S S S S S +H.          W
|--------------------|----------------------|----------*|
|----------10---3----|-----------3-(3)------|----------*|
|-9--(9)--------2----|---------2------------|----------*|
|---------------5----|-0h2h3h4--------------|-()----*|
|--------------------|----------------------|----------*|
|--------9-(9)-------|----------------------|----------*|
|
| W                    W                       +W
|--------------------|----------------------|----------*|
|-2------------------|----------------------|----------*|
|-0------------------|-2--------------------|--(2)-----*|
|-2------------------|-4--------------------|--(4)-----*|
|-0------------------|-0--------------------|--(0)-----*|
|--------------------|-0--------------------|--(0)-----*|


Duration Legend
---------------
W - whole; H - half; Q - quarter; E - 8th; S - 16th; T - 32nd; X - 64th; a - acciaccatura
+ - note tied to previous; . - note dotted; .. - note double dotted
Uncapitalized letters represent notes that are staccato (1/2 duration)
Irregular groupings are notated above the duration line
Duration letters will always appear directly above the note/fret number it represents the
duration for.  Duration letters with no fret number below them represent rests.  Multi-
bar rests are notated in the form Wxn, where n is the number of bars to rest for.  Low
melody durations appear below the staff

Tablature Legend
----------------
 h   - hammer-on
 p   - pull-off
 b   - bend
 pb  - pre-bend
 r   - bend release (if no number after the r, then release immediately)
 /\  - slide into or out of (from/to "nowhere")
 s   - legato slide
 S   - shift slide
  - natural harmonic
[n]  - artificial harmonic
n(n) - tapped harmonic
 ~   - vibrato
 tr  - trill
 T   - tap
 TP  - trem. picking
 PM  - palm muting
\n/  - tremolo bar dip; n = amount to dip
 \n  - tremolo bar down
 n/  - tremolo bar up
/n\  - tremolo bar inverted dip
 =   - hold bend; also acts as connecting device for hammers/pulls
   - volume swell (louder/softer)
 x   - on rhythm slash represents muted slash
 o   - on rhythm slash represents single note slash

Misc Legend
-----------
 |  - bar
||  - double bar
||o - repeat start
o|| - repeat end
*|  - double bar (ending)
 :  - bar (freetime)
 $  - Segno
 &  - Coda
Tempo markers -  = BPM(8/16=s8/s16), where s8 = swing 8ths, s16 = swing 16ths


***************************************************************************************
* Generated using Power Tab Editor by Brad Larsen - http://powertab.guitarnetwork.org *
***************************************************************************************
Comments