Dire Straits - Brothers In Arms Chords & Tabs

 

Brothers In Arms Chords & Tabs

Dire Straits Chords & Tabs

Version: 5 Type: Tab 0 ratings
1 star 2 stars 3 stars 4 stars 5 stars
comments

Brothers In Arms Tab

   
----------------------------------------------------------------------------
			     BROTHERS IN ARMS- Dire Straits
----------------------------------------------------------------------------
Tabbed by:John Hammond
Email:john@lochlomond67.fsnet.co.uk

Tuning:Standard

e|-------------------------------------------------------------------------|
B|---------4--7--9~~~~~~--7~~----------------4---7~~-4---------------------|
G|---4--4--------------------------6--6--6---------------------------------|
D|-------------------------------------------------------------------------|
A|-------------------------------------------------------------------------|
E|-------------------------------------------------------------------------|



e|-------------------------------------------------------------------------|
B|--7--7--7---7--7h9~~~~---4~~-----4--4--5~---7---9------------------------|
G|-------------------------------------------------------------------------|
D|-------------------------------------------------------------------------|
A|-------------------------------------------------------------------------|
E|-------------------------------------------------------------------------|



e|--------------------------------------------------4----------------------|
B|--7--7--7--7--7h9~~~---7~~--------7--7--4--7--4--------------------------|
G|-------------------------------------------------------------------------|
D|-------------------------------------------------------------------------|
A|-------------------------------------------------------------------------|
E|-------------------------------------------------------------------------|



e|-------------------------------------------------------------------------|
B|---------4~---7----4------------5~~--4-----------------------------------|
G|--6-6-6---------------6~---4-----------6~~~------------------------------|
D|------------------------------6------------------------------------------|
A|-------------------------------------------------------------------------|
E|-------------------------------------------------------------------------|



e|-----------------------4~~~----------------------------------------------|
B|------------4~~~--7~~--------7~~-----------------4--7--7p4---------------|
G|---4--4--4---------------------------------6--6--------------------------|
D|-------------------------------------------------------------------------|
A|-------------------------------------------------------------------------|
E|-------------------------------------------------------------------------|



e|-------------------------------------------------------------------------|
B|---7--7--7--7--7h9~~---4--4--------4-4-4--5~--7----7h9-------------------|
G|-------------------------------------------------------------------------|
D|-------------------------------------------------------------------------|
A|-------------------------------------------------------------------------|
E|-------------------------------------------------------------------------|


[ Tab from: http://www.guitartabs.cc/tabs/d/dire_straits/brothers_in_arms_tab_ver_5.html ]
e|--------4--6--7---4-----6~~----------------------------------------------|
B|--7--7---------------4-------------4-4-4--5~---7---7h9-------------------|
G|-------------------------------------------------------------------------|
D|-------------------------------------------------------------------------|
A|-------------------------------------------------------------------------|
E|-------------------------------------------------------------------------|



e|-------------------------------------------------------------------------|
B|---------4~--7---4-------------5~~--4------------------------------------|
G|--6~~-6-------------6----4------------6~~~-------------------------------|
D|----------------------------6--------------------------------------------|
A|-------------------------------------------------------------------------|
E|-------------------------------------------------------------------------|

e|-------------------------------------------------------------------------|
B|--4p2-----2--4-----2----4-------4---7--7---4-----------------------------|
G|-------4--------4-----------------------------6----4---------------------|
D|-------------------------------------------------------------------------|
A|-------------------------------------------------------------------------|
E|-------------------------------------------------------------------------|


e|-------------------------------------------------------------------------|
B|--------4----------4----------4-4-7-7---7-7h9----------------------------|
G|-----6-----4--6----------------------------------4-----------------------|
D|--2----------------------------------------------------------------------|
A|-------------------------------------------------------------------------|
E|-------------------------------------------------------------------------|

e|------------------4------------------------------------------------------|
B|------------4--7--------7---------------4~~-7---7p4----------------------|
G|---4--4--4-------------------------6-6-----------------------------------|
D|-------------------------------------------------------------------------|
A|-------------------------------------------------------------------------|
E|-------------------------------------------------------------------------|


e|------------------4~~~---------------------------------------------------|
B|--7--7--7--4--7p4---------------4-4-4--5--7--7h9-------------------------|
G|-------------------------------------------------------------------------|
D|-------------------------------------------------------------------------|
A|-------------------------------------------------------------------------|
E|-------------------------------------------------------------------------|

e|-------------------------------------------------------------------------|
B|--7-7-7--7--7--7---7h9p---7--4---------4-4-4-4--5~---7---9---------------|
G|-------------------------------------------------------------------------|
D|-------------------------------------------------------------------------|
A|-------------------------------------------------------------------------|
E|-------------------------------------------------------------------------|

e|-------------------------------------------------------------------------|
B|-----7~---7--5---4----------5~~-4----------------------------------------|
G|--6-----------------6~--4---------6~~~-----------------------------------|
D|--------------------------6----------------------------------------------|
A|-------------------------------------------------------------------------|
E|-------------------------------------------------------------------------|


| /  slide up
| \  slide down
| h  hammer-on
| p  pull-off
| ~  hold note
| +  harmonic
| x  Mute note

This is my first tab so please feel free to correct.
============================================================================



Comments