Dir En Grey - Raison Detre Chords & Tabs

 

Raison Detre Chords & Tabs

Dir En Grey Chords & Tabs

Version: 1 Type: Tab 0 ratings
1 star 2 stars 3 stars 4 stars 5 stars
comments

Raison Detre Tab

Artist: Dir en grey
Album: Gauze
Tuning: standard
This tab covers only one guitar line because the second guitar is nearly
impossible to hear.  This is the lead tab.

Symbols:
x - mute
b - bend
/ - slide up
\ - slide down

Intro/Outro 
e -----------------------------------------------------------------------------
b --12---12xxxx12---10---10xxxx10---8---8xxxx8---10---10xxxx10-(start over)----
g --11---11xxxx11----9----9xxxx-9---7---7xxxx7----9----9xxxx-9-----------------
d -----------------------------------------------------------------------------
a -----------------------------------------------------------------------------
e -----------------------------------------------------------------------------

Part just before verse (fill 1)
  (1st time) (2nd time)
e ----------|------------------
b -12-12-12-|-8-8-8------------
g -11-11-11-|-7-7-7------------
d ----------|------------------
a ----------|------------------
e ----------|------------------

Verse
e ------------------------------------------------------------------------------
b --x-x-12-12-x-x-12-12-x-x-12-12-x-x-x-12-x-x-12--x-x-12-12-x-x-12-12-x-x-x-12-
g --x-x-11-11-x-x-11-11-x-x-11-11-x-x-x-11-x-x-11--x-x-11-11-x-x-11-11-x-x-x-11-
d ------------------------------------------------------------------------------
a ------------------------------------------------------------------------------
e ------------------------------------------------------------------------------

This is the part played just before the chorus, and after the solo (fill 2)
e -------------------------------------------------------------------------
b --12---10xxxx10---10/11-11---x-x-12xxxx12--(start over)------------------
g --11----9xxxx-9----9/10-10---x-x-11xxxx11--------------------------------
d -------------------------------------------------------------------------
a -------------------------------------------------------------------------
e -------------------------------------------------------------------------

Chorus
e ------------------------------------------------------------------------------
b --12xxxx12--x-x-12xxxx12--12xxxx12--x-x-12xxxx12---10xxxx10--x-x-10xxxx10-----
g --11xxxx11--x-x-11xxxx11--11xxxx11--x-x-11xxxx11----9xxxx-9--x-x--9xxxx-9-----
d ------------------------------------------------------------------------------
a ------------------------------------------------------------------------------
e ------------------------------------------------------------------------------
[ Tab from: http://www.guitartabs.cc/tabs/d/dir_en_grey/raison_detre_tab.html ]
Chorus(continued)                          Little part before solo (fill 3)
e --------------------------------------   -------------------------------------
b --8xxxx8--x-x-8xxxx8--(Star over)-----   --12---------------------------------
g --7xxxx7--x-x-7xxxx7------------------   -----10-11-10---11-10----11----------
d --------------------------------------   ----------------------------10-------
a --------------------------------------   -------------------------------------
e --------------------------------------   -------------------------------------

Solo
e --12b-12b-12b-10-9---9-10-7--9-10-7\---7-----------3--------------------------
b -------------------------------------7---7--7-8-7----2-3--3-2-3/-8-7/--12-11--
g ------------------------------------------------------------------------------
d ------------------------------------------------------------------------------
a ------------------------------------------------------------------------------
e ------------------------------------------------------------------------------

e -/10-9---15---------------7-----7------7----------------------7-----7------7--
b -----------14-15-15b-14-------------------------------------------------------
g ----------------------------6-6----6-6----6-7-/9-9/10\9-7-6-----6-6----6-6----
d ------------------------------------------------------------------------------
a ------------------------------------------------------------------------------
e ------------------------------------------------------------------------------

e ----------------7-----5-----7---7/10-10---9---/10-9-------------2-2/7-7/------
b ----------------------------------------7------------8-7--3-2-3---------------
g -6-7-9-9b-7-6-----6-6---6-6---6-----------------------------------------------
d ------------------------------------------------------------------------------
a ------------------------------------------------------------------------------
e ------------------------------------------------------------------------------
   
e -14--------------------------------------15\14---12/13--13-----12--13---14----
b ---13-14--14-12-14-14b-15-12-11---15-14--14\13---11/14----12-11------12---13--
g --------14--------------------------------------------------------------------
d ------------------------------------------------------------------------------
a ------------------------------------------------------------------------------
e ------------------------------------------------------------------------------

e -----12-13----13-14-----13-14--\----------------------------------------------
b --11-------12--------12-------------------------------------------------------
g ------------------------------------------------------------------------------
d ------------------------------------------------------------------------------
a ------------------------------------------------------------------------------
e ------------------------------------------------------------------------------

Here is the order that everything goes in:
Intro/Outro---------------2X         HAVE FUN!!!  THIS IS AN AWESOME SONG!!!
Fill 1 (1st time)---------1X         I AM VERY PROUD OF THE OUTCOME!!! LEAVE
Verse---------------------2X         FEEDBACK, WHETHER POSITIVE OR NEGATIVE!!!
Intro/Outro---------------1X         DOUMO ARIGATOU!!!
Fill 1 (second time)------1X
Verse---------------------2X
Fill 2--------------------2X
Chorus--------------------2X
Fill 3--------------------1X
SOLO
Fill 2--------------------2X
Chorus--------------------4X
Intro/Outro---------------2X
Comments